Sei sulla pagina 1di 12

Barbara Polacchi

I box delle scale


pentatoniche e modali

Clicca qui per avere informazioni sul


corso BASE di chitarra

Clicca qui per avere informazioni sul corso di


chitarra per rendere più agili le dita

Barbara Polacchi

I box delle scale


pentatoniche (minori
e maggiori) e delle
scale modali

www.suonolachitarra.it

© 2011 e ss. - Tutti i diritti riservati 1 www.suonolachitarra.it


Barbara Polacchi
I box delle scale
pentatoniche e modali

Clicca qui per avere informazioni sul


corso BASE di chitarra

Clicca qui per avere informazioni sul corso di


chitarra per rendere più agili le dita

Indice

Introduzione.............................................................................................................................3
I 5 box della scala pentatonica minore.................................................................................6
Box 1......................................................................................................................................6
Box 2......................................................................................................................................6
Box 3......................................................................................................................................6
Box 4......................................................................................................................................7
Box 5......................................................................................................................................7
I 5 box della scala pentatonica maggiore.............................................................................8
Box 1......................................................................................................................................8
Box 2......................................................................................................................................8
Box 3......................................................................................................................................8
Box 4......................................................................................................................................9
Box 5......................................................................................................................................9
I 5 box della scala modale....................................................................................................10
Box 1....................................................................................................................................10
Box 2....................................................................................................................................10
Box 3....................................................................................................................................10
Box 4....................................................................................................................................11
Box 5....................................................................................................................................11
Ed ora?.....................................................................................................................................12

© 2011 e ss. - Tutti i diritti riservati 2 www.suonolachitarra.it


Barbara Polacchi
I box delle scale
pentatoniche e modali

Clicca qui per avere informazioni sul


corso BASE di chitarra

Clicca qui per avere informazioni sul corso di


chitarra per rendere più agili le dita

Introduzione

Ciao,

in questo e-book ho raccolto i box delle scale pentatoniche, maggiori e minori, e

delle scale modali, che puoi usare per le tue improvvisazioni, per i tuoi assoli o, sem-

plicemente, come esercizi per prendere sempre più confidenza con la tua chitarra.

Puoi fare queste scale come riscaldamento, oppure per sciogliere le dita delle mani,

per lavorare sulla coordinazione e per aumentare sempre di più la tua velocità.

L'importante è farle sempre a metronomo, all'inizio lentamente e poi sempre più ve-

locemente.

Inoltre, lavora sempre con la pennata alternata, almeno inizialmente, così … prendi

due piccioni con una fava :-) .

In futuro, quando avrai preso dimestichezza, potrai fare tutte le variazioni che vorrai,

sia a livello di pennata, sia a livello ritmico e usare queste scale come meglio preferi-

sci.

Come vedrai, poi, per alcuni box la fondamentale non è sulla 6° corda.

Trovi comunque tutte le note che appartengono alla scala, e che sono prima della

fondamentale: te le ho volute mettere perché comunque possono essere utili nelle

© 2011 e ss. - Tutti i diritti riservati 3 www.suonolachitarra.it


Barbara Polacchi
I box delle scale
pentatoniche e modali

Clicca qui per avere informazioni sul


corso BASE di chitarra

Clicca qui per avere informazioni sul corso di


chitarra per rendere più agili le dita

improvvisazioni o negli assoli, per completare il box con tutte le diteggiature.

I numeri scritti in grassetto indicano la fondamentale della scala presa come punto di

riferimento.

L’1 corrisponde all’indice, il 2 al medio, il 3 all’anulare e il 4 al mignolo della mano sini-

stra.

Quando trovi l’1 tra parentesi vuol dire che l’indice dovrà spostarsi di un tasto indie-

tro, mentre il resto della mano sinistra resta fermo, quindi non devi spostare la mano

ma solo il dito.

Infine, questi sono esercizi da fare nel tempo, ogni giorno, non tutti insieme :)

Ti ricordo anche che le tempistiche sono molto personali, quindi prenditi pure tutto il

tempo di cui hai bisogno per far tue queste scale.

Bene, a questo punto non mi resta che augurarti una … buona suonata!

© 2011 e ss. - Tutti i diritti riservati 4 www.suonolachitarra.it


Barbara Polacchi
I box delle scale
pentatoniche e modali

Clicca qui per avere informazioni sul


corso BASE di chitarra

Clicca qui per avere informazioni sul corso di


chitarra per rendere più agili le dita

I 5 box della scala pentatonica minore

Box 1

E-----|--2--|-----|--4--|
B-----|--2--|-----|--4--|
G--1--|-----|-----|--4--|
D--1--|-----|-----|--4--|
A-----|--2--|-----|--4--|
E-----|--2--|-----|--4--|

Box 2

E--1--|-----|-----|--4--|
B--1--|-----|-----|--4--|
G--1--|-----|--3--|-----|
D--1--|-----|--3--|-----|
A--1--|-----|--3--|-----|
E--1--|-----|-----|--4--|

Box 3

E-----|--2--|-----|--4--|
B-----|--2--|-----|--4--|
G--1--|-----|--3--|-----|
D--1--|-----|-----|--4--|
A--1--|-----|-----|--4--|
E-----|--2--|-----|--4--|

© 2011 e ss. - Tutti i diritti riservati 5 www.suonolachitarra.it


Barbara Polacchi
I box delle scale
pentatoniche e modali

Clicca qui per avere informazioni sul


corso BASE di chitarra

Clicca qui per avere informazioni sul corso di


chitarra per rendere più agili le dita

Box 4

E-------|--1--|-----|--3--|-----|
B-------|--1--|-----|-----|--4--|
G--(1)--|-----|-----|--3--|-----|
D-------|--1--|-----|--3--|-----|
A-------|--1--|-----|--3--|-----|
E-------|--1--|-----|--3--|-----|

Box 5

E--1--|-----|-----|--4--|
B-----|--2--|-----|--4--|
G--1--|-----|--3--|-----|
D--1--|-----|--3--|-----|
A--1--|-----|-----|--4--|
E--1--|-----|-----|--4--|

© 2011 e ss. - Tutti i diritti riservati 6 www.suonolachitarra.it


Barbara Polacchi
I box delle scale
pentatoniche e modali

Clicca qui per avere informazioni sul


corso BASE di chitarra

Clicca qui per avere informazioni sul corso di


chitarra per rendere più agili le dita

I 5 box della scala pentatonica maggiore

Box 1

E-----|--2--|-----|--4--|
B-----|--2--|-----|--4--|
G--1--|-----|-----|--4--|
D--1--|-----|-----|--4--|
A-----|--2--|-----|--4--|
E-----|--2--|-----|--4--|

Box 2

E--1--|-----|-----|--4--|
B--1--|-----|-----|--4--|
G--1--|-----|--3--|-----|
D--1--|-----|--3--|-----|
A--1--|-----|--3--|-----|
E--1--|-----|-----|--4--|

Box 3

E-----|--2--|-----|--4--|
B-----|--2--|-----|--4--|
G--1--|-----|--3--|-----|
D--1--|-----|-----|--4--|
A--1--|-----|-----|--4--|
E-----|--2--|-----|--4--|

© 2011 e ss. - Tutti i diritti riservati 7 www.suonolachitarra.it


Barbara Polacchi
I box delle scale
pentatoniche e modali

Clicca qui per avere informazioni sul


corso BASE di chitarra

Clicca qui per avere informazioni sul corso di


chitarra per rendere più agili le dita

Box 4

E-------|--1--|-----|--3--|-----|
B-------|--1--|-----|-----|--4--|
G--(1)--|-----|-----|--3--|-----|
D-------|--1--|-----|--3--|-----|
A-------|--1--|-----|--3--|-----|
E-------|--1--|-----|--3--|-----|

Box 5

E--1--|-----|-----|--4--|
B-----|--2--|-----|--4--|
G--1--|-----|--3--|-----|
D--1--|-----|--3--|-----|
A--1--|-----|-----|--4--|
E--1--|-----|-----|--4--|

© 2011 e ss. - Tutti i diritti riservati 8 www.suonolachitarra.it


Barbara Polacchi
I box delle scale
pentatoniche e modali

Clicca qui per avere informazioni sul


corso BASE di chitarra

Clicca qui per avere informazioni sul corso di


chitarra per rendere più agili le dita

I 5 box della scala modale

Box 1

E--1--|--2--|-----|--4--|
B-----|--2--|-----|--4--|
G--1--|-----|--3--|--4--|
D--1--|-----|--3--|--4--|
A--1--|--2--|-----|--4--|
E--1--|--2--|-----|--4--|

Box 2

E-------|--1--|-----|--3--|--4--|
B-------|--1--|-----|--3--|--4--|
G--(1)--|--1--|-----|--3--|-----|
D--(1)--|--1--|-----|--3--|-----|
A-------|--1--|-----|--3--|-----|
E-------|--1--|-----|--3--|--4--|

Box 3

E--1--|--2--|-----|--4--|
B--1--|--2--|-----|--4--|
G--1--|-----|--3--|-----|
D--1--|-----|--3--|--4--|
A--1--|-----|--3--|--4--|
E--1--|--2--|-----|--4--|

© 2011 e ss. - Tutti i diritti riservati 9 www.suonolachitarra.it


Barbara Polacchi
I box delle scale
pentatoniche e modali

Clicca qui per avere informazioni sul


corso BASE di chitarra

Clicca qui per avere informazioni sul corso di


chitarra per rendere più agili le dita

Box 4

E-------|--1--|-----|--3--|-----|
B-------|--1--|-----|--3--|--4--|
G--(1)--|-----|--2--|--3--|-----|
D--(1)--|--1--|-----|--3--|-----|
A--(1)--|--1--|-----|--3--|-----|
E-------|--1--|-----|--3--|-----|

Box 5

E-------|--1--|-----|--3--|--4--|
B-------|-----|--2--|-----|--4--|
G--(1)--|--1--|-----|--3--|-----|
D-------|--1--|-----|--3--|-----|
A-------|--1--|-----|--3--|--4--|
E-------|--1--|-----|--3--|--4--|

© 2011 e ss. - Tutti i diritti riservati 10 www.suonolachitarra.it


Barbara Polacchi
I box delle scale
pentatoniche e modali

Clicca qui per avere informazioni sul


corso BASE di chitarra

Clicca qui per avere informazioni sul corso di


chitarra per rendere più agili le dita

Ed ora?

Ed ora, se questo piccolo assaggio ti è piaciuto, voglio proporti un ulteriore approfon-


dimento di questo argomento.
Su suonolachitarra è disponibile un pacchetto, chiamato “I miei libri di scale“, diviso
in quattro libri ognuno dei quali contiene sia file pdf sia file mp3, sulle scale, da cui
questo pdf gratuito è stato estratto.
Ne “I miei libri di scale“ trovi:

✔ “Il mio primo libro di scale”


In questo pacchetto trovi tutte le scale maggiori e minori: le tab, gli spartiti,
gli esercizi di preparazione e gli mp3 per farti sentire qual è il risultato.
✔ “Il mio secondo libro di scale”
In questo pacchetto trovi tutte le scale pentatoniche, maggiori e minori: i
cinque box, le tab, gli spartiti, gli esercizi di preparazione e gli mp3 per farti
sentire qual è il risultato.
✔ “Il mio terzo libro di scale”
In questo pacchetto trovi tutte le scale modali: i cinque box, le tab, gli spartiti
e gli mp3 per farti sentire qual è il risultato.
✔ “Il mio quarto libro di scale”
In questo pacchetto trovi tutte le scale blues: i cinque box, le tab, gli spartiti,
gli esercizi di preparazione e gli mp3 per farti sentire qual è il risultato.

Se vuoi saperne di più, allora clicca subito qui per avere ulteriori informazioni.

© 2011 e ss. - Tutti i diritti riservati 11 www.suonolachitarra.it


Barbara Polacchi
I box delle scale
pentatoniche e modali

Clicca qui per avere informazioni sul


corso BASE di chitarra

Clicca qui per avere informazioni sul corso di


chitarra per rendere più agili le dita

Ti auguro una buona permanenza sul sito suonolachitarra.it.


Al tuo successo!
Barbara Polacchi

© 2011 e ss. - Tutti i diritti riservati 12 www.suonolachitarra.it