Sei sulla pagina 1di 3

ULTIMATE

Je So Pazzo chords by Pino Daniele GUITAR


COM
Difficulty: novice
Tuning: E A D G B E

CHORDS

Em C7 B7 Am7

12 3241 213 4 2 1

[Intro]

e|-----0-3-0------------------|--3-3-2-2-2-0---------|
B|---0-------3-0--------------|--0-0-0-0-0-0---------|
G|---------------2-0-----0----|--0-0-0-0-0-0---------|
D|-------------------2-0---2--|--2-2-2-2-2-2---------|
A|----------------------------|--2-2-2-2-2-2---------|
E|----------------------------|--0-0-0-0-0-0---------|

e|--0-----------------7--|-------------------------|
B|--1-----------------10-|-------------------------|
G|--3-----------------8--|-------------------------|
D|--2-------7-8-7-----7--|--------7-8-7------0-----|
A|--3--7-10-------10--9--|---7-10-------10-7-------|
E|--------------------7--|-------------------------|

[Verse 1]
Em
Je so' pazzo, je so' pazzo
C7
e vogl'essere chi vogl'io
B7
ascite fora d'a casa mia
Em
je so' pazzo, je so' pazzo
C7
ci ho il popolo che mi aspetta
B7
e scusate vado di fretta

[Chorus]
Am7 B7
non mi date sempre ragione
Em
io lo so che sono un errore
Am7 B7
nella vita voglio vivere
Em
almeno un giorno da leone
Am7 B7
e lo Stato questa volta

Page 1/3
Em
non mi deve condannare
C7 B7
pecche` so' pazzo je so' pazzo
Em
ed oggi voglio parlare.

e|--0-----------------7--|-------------------------|
B|--1-----------------10-|-------------------------|
G|--3-----------------8--|-------------------------|
D|--2-------7-8-7-----7--|--------7-8-7------0-----|
A|--3--7-10-------10--9--|---7-10-------10-7-------|
E|--------------------7--|-------------------------|

[Verse 2]
Em
Je so' pazzo, je so' pazzo
C7
si se 'ntosta 'a nervatura
B7
metto a tutti 'nfaccia o muro
Em
je so' pazzo, je so' pazzo
C7
e chi dice che Masaniello
B7
poi negro non sia piu` bello?

[Chorus]
Am7 B7
e non sono menomato
Em
sono pure diplomato
Am7 B7
e la faccia nera l'ho dipinta
Em
per essere notato
Am7 B7
Masaniello e` crisciuto
Em
Masaniello e` turnato
C7 B7
je so' pazzo je so' pazzo
Em C7 B7 / Em (STOP)
nun nce scassate 'o cazzo!

[Outro]

e|--0-----------------7--|-------------------------|
B|--1-----------------10-|-------------------------|
G|--3-----------------8--|-------------------------|
D|--2-------7-8-7-----7--|--------7-8-7------0-----|
A|--3--7-10-------10--9--|---7-10-------10-7-------|
E|--------------------7--|-------------------------|

Page 2/3
e|--3-3-2-2-2-0---3-3-2-2-2-0--|--3-3-2-2-2-0---3-3-2-2-2-0--|
B|--0-0-0-0-0-0---0-0-0-0-0-0--|--0-0-0-0-0-0---0-0-0-0-0-0--|
G|--0-0-0-0-0-0---0-0-0-0-0-0--|--0-0-0-0-0-0---0-0-0-0-0-0--|
D|--2-2-2-2-2-2---2-2-2-2-2-2--|--2-2-2-2-2-2---2-2-2-2-2-2--|
A|--2-2-2-2-2-2---2-2-2-2-2-2--|--2-2-2-2-2-2---2-2-2-2-2-2--|
E|--0-0-0-0-0-0---0-0-0-0-0-0--|--0-0-0-0-0-0---0-0-0-0-0-0--|

Page 3/3