Sei sulla pagina 1di 4

tico tico-Paco de lucia

Tabbed by:lespaulakias

Email:lespaulakias11@yahoo.gr

Tuning:standard

part a

e|--------------|--------------------------|--------------------|--|

B|--------------|--------------------------|--------------------|--|

G|--------------|--------2-----------------|--------1-----------|--|

D|-----2--1-2---|--3--2------2---1---2-----|--3--2------2--1--2-|--|

A|--------------|--------------------------|--------------------|--|

E|--------------|--------------------------|--------------------|--|

e|----------------------------|---------------------|----------------|------------------|

B|-----------3--0-------------|---------------------|-------3--1-----|------------------|

G|-----------------1----------|------------2--1--0--|----2-------2---|------------------|

D|--3---2------------2--0-----|---------------------|--3-----------3-|------------------|

A|-------------------------4--|--3------------------|----------------|------------------|

E|----------------------------|---------------------|----------------|------------------|

e|-------------------|-----------------------------|-------------------|--|

B|--------1---1--0---|--0--------------------------|-------------------|--|

G|-----2-----------2-|---------------2--5--4-5--3--|-4-----------------|--|

D|--2----------------|--------1--4-----------------|-----------2--1--2-|--|

A|-------------------|-----2-----------------------|-------------------|--|
E|-------------------|-----------------------------|-------------------|--|

e|--------------------|---------------|--------------0----------|--0--0------------|

B|---------3--1-------|-----1--1-0----|--0--------0-----3--1--0-|--1--1--0------|--|

G|------2--------2----|---2---------2-|--------1----------------|--2--2----3--2----|

D|--3---------------3-|-2-------------|-----2-------------------|------------------|

A|--------------------|---------------|-------------------------|------------------|

E|--------------------|---------------|-------------------------|------------------|

part b e|------------------------|---------------|------------------------|--|

B|------------------------|--------0------|------------------------|-----------|

G|--0-------0--------0--1-|--2--------3-2-|--0---------------------|-----------|

D|-------2--------2-------|-----3---------|--------0--3-----0--3-4-|-----------|

A|-----3-------3----------|---------------|-----2--------2---------|-----------|

E|------------------------|---------------|------------------------|-----------|

[ Tab from: http://www.guitaretab.com/p/paco-de-lucia/185462.html ]

e|------------0-|-----------0---------|--------------------|--------------------|--|

B|-------0h1----|--1-----3-----3----3-|----1------------0--|--------------------|--|

G|--0-----------|----2/4---------4----|--2---2----2--4-----|-4-0--2-4-2--0-----2|--|

D|----2---------|---------------------|--------3-----------|----------------3---|--|

A|--------------|---------------------|--------------------|-----------------------|

E|--------------|---------------------|--------------------|-----------------------|

e|---------------------|--------------------|----------------|-----------------|--|

B|--------------0------|--------------------|---------0------|------------1-0--|--|
G|-0---2--0--------3-2-|--0------0-----0--1-|-2----------3-2-|-0--------------3|--|

D|-----------2---------|------2------2------|----3-----------|---2-------------|--|

A|---------------------|----3------3--------|----------------|---------------|----|

E|---------------------|--------------------|----------------|--------------------|

e|---------------------|-0--------3-2-1--2-|-------------------|--|

B|-----------0-3-1-0-1-|---1---1-----------|-3-1--0------------|--|

G|---2--1-2------------|-----0-------------|---------2--0------|--|

D|---------------------|-------------------|--------------3-2-0|--|

A|---------------------|-------------------|-------------------|--|

E|---------------------|-------------------|-------------------|--|

e|------------0---0-|

B|--1-1-1-1-1---2---|

G|--0-0-0-0-0-------|

D|--2-2-2-2-2-------|

A|--3-3-3-3-3-------|

E|------------------|

part c

e|---5--0----5-4-0--|-2-0---2-0---0-1-|-2-0---2--0-----0--4------------|play

B|--------2---------|-----2-----3-----|-----3-------2-------|----------|this

G|------------------|-----------------|---------------------|---twice--|

D|------------------|-----------------|---------------------|----------|

A|------------------|-----------------|---------------------|----------|

E|------------------|-----------------|---------------------|----------|
e|--5--0----5--4----4--|-2-0---2--0----0--1--|--2-1--2-3-2-0------|--|

B|-------2-------2-----|-----2------3--------|---------------3--2-|--|

G|---------------------|---------------------|--------------------|--|

D|---------------------|---------------------|--------------------|--|

A|---------------------|---------------------|--------------------|--|

E|---------------------|---------------------|--------------------|--|

e|-----------------|--------------------|----0-5--9--5--0------|-----------------|--|

B|-0---0-2-3-------|------------------0-|-2---------------3--2-|-0---------------|--|

G|---2-------2-1-0-|---------1-2-1-2----|----------------------|---2-1-----------|--|

D|-----------------|--4-3-4-------------|----------------------|------4-2-0------|--|

A|-----------------|--------------------|----------------------|------------4--2-|--|

E|-----------------|--------------------|----------------------|--------------------|

e|------0---0--|

B|--------4----|

G|-------------|

D|-------------|

A|--0----------|

E|-------------|