Sei sulla pagina 1di 2

ALMENO STAVOLTA

Intro:

e|----------------------------------------------|
B|----------------------------------------------|
G|---10-9-10----10-9-10----10-9-10-12-10-9-10---|
D|----------------------------------------------| x2
A|----------------------------------------------|
E|----------------------------------------------|

Dm
Se non ti vuoi fidare
A#
almeno ascoltami
F
di rimanermi ostile
C
non serve a te, n a me.
Dm
Non voglio interrogarti
A#
rinfacciarti quel che fai
F
io piuttosto sto cercando
C
chi eravamo noi

Almeno stavolta
e|----------------------------------------------|
B|----------------------------------------------|
G|---10-9-10----10-9-10----10-9-10-12-10-9-10---|
D|----------------------------------------------|
A|----------------------------------------------|
E|----------------------------------------------|

Almeno ascolta
e|----------------------------------------------|
B|----------------------------------------------|
G|---10-9-10----10-9-10----10-9-10-12-10-9-10---|
D|----------------------------------------------|
A|----------------------------------------------|
E|----------------------------------------------|

Dm A# F C
Almeno stavolta col coraggio di guardarci in faccia
Dm A# F C
Ridammi l'effetto di un battito nel petto

Dm
Sar che siamo stanchi
A#
sar il carattere
F
la lista dei difetti
C
l'hai fatta tu, io mai
Dm
Ora smetti di pensare
A#
a un problema che non c'
F
e dammi il tempo di inchiodare
C
tutti i tuoi perch

Almeno stavolta
e|----------------------------------------------|
B|----------------------------------------------|
G|---10-9-10----10-9-10----10-9-10-12-10-9-10---|
D|----------------------------------------------|
A|----------------------------------------------|
E|----------------------------------------------|
Almeno ascolta
e|----------------------------------------------|
B|----------------------------------------------|
G|---10-9-10----10-9-10----10-9-10-12-10-9-10---|
D|----------------------------------------------|
A|----------------------------------------------|
E|----------------------------------------------|

Dm A# F C
Almeno stavolta col coraggio di guardarci in faccia
Dm A# F C
Ridammi l'effetto di un battito nel petto
Dm A# F C
Sono qui questa notte
Dm A# F C
dietro un s che non parte

Cm G# D# A#
e|--------------------------------------|
B|--------------------------------------|
G|---8-7-8----8-7-8----8-7-8-10-8-7-8---|
D|--------------------------------------| x2
A|--------------------------------------|
E|--------------------------------------|

Dm A# F C
Almeno stavolta con la voglia di guardarci in faccia
Dm A# F C
sperando che un'ora ti dia voglia di ridarti ancora
Dm A# F C
e cos non so come
Dm A# F C
griderai il mio nome

Dm
Se non ti vuoi fidare
A#
almeno ascoltami
F
di rimanermi ostile
C
non serve a te, n a me

Dm