Sei sulla pagina 1di 6

Chopin - Nocturne in B-flat Minor Op.9 no.

1 (Classical Guitar Tab)


Frederic
Nocturne
Arranged
2006
D
(For

the

Op
for
String
key
of

=
B-flat

no
Guitar

Minor,

in
by

tuned
use

down
Capo
on

Chopin
Minor
Achilles

B-flat
Michael

the

to
first

C
fret)

6/4
E
E
E
E
E
E
E
E
E
E
E
E|-5-7-8-4-5---|------------------------------|
B|-----------6-|-5---5---5-----5---6-5-3------|
G|-------------|-------------------------4----|
C|-------------|-----0---4-------------4------|
A|-------------|-0-----0-------0---5----------|
E|-------------|---0-------0-----0---4---0----|

E
E
E
E
E
E
S
S
S
|---------------5h7h8p4-5p4p3h4-7p5------|
|-----------------------------------6----|
|-5-------2------------------------------|
|-----0---4-------------0-------4--------|
|-0-----0-------0------------------------|
|---0-------0----------------------------|

|-3-|
E
E

|-3-|
|-3-|
|-3-|
|-3-|
S S S S E E E E E E
S S S S S S S S S E E E
E E E E E E
E E E E E E
|---------5p4p3-2-1-0---------------------------|---------------5---5---5---|
|-5h6-4h5---------------4-3-2-1-0h1p0---0-5-4-3-|---------------------------|
|-------------------------------------3---------|-5-------2-----------------|
|---------0---------------------2---------4-----|-----0---4---------0---4---|
|-0---------------------0-----------------------|-0-----0-------0-----0-----|
|---------------0-------------------------------|---0-------0-----0-------0-|
E E E E E E
E E E E E E
E E E E E E
|-3-------------------------|-0-----------------0----------|
|---------------1-----0---6-|---------------3-----3-1------|
|-------------------2---5---|-------------------------1----|
|---------4---------0-5-----|---------4---------0-5-0------|
|-3-----3---------0-----3---|-3-----3----------------------|
|---0-3-----0---1---------5-|---0-3-----0---1-4-------4----|

E E E E E E
E E E E E E
E E E E E E
|-------------------0-------|-0-------------5-7-8-4-5------|
|---------------3-----3-1-3-|-------------------------6----|
|-0-------5-----------------|------------------------------|
|---------4---------0-5-2---|---------2---------0---4------|
|-3-----3-----------------2-|-----2-----2---0-----0--------|
|---0-3-----0---1-4---------|-0-4---4---------0-------0----|

|-3-| |-3-|
|-3-|
E E E E E E
E E E E E E
E E E E E E
E E E S S S S S E E E
|---------------------------|---------------5h7h8-4h5p4---4-7p5------|
|-5---5---5-----5---6-5-3---|---------------------------8-------6----|
|-------------------------4-|-5-------2------------------------------|
|-----0---4-------------4---|-----0---4-----------0---------4--------|
|-0-----0-------0---5-------|-0-----0-------0------------------------|
|---0-------0-----0---4---0-|---0-------0----------------------------|

|--3--|
|-3-|
|-3-|
|-3-|
|-3-|
|-3-|
E E E E E E E E E
E E E E E E E E E
E E E E E E
E E E E E E
|-0-12p11-10p8p7------0---------------2p0---|---------------5---5---5------|
|----------------10p7-----4p3p1-0---------0-|-1----------------------------|
|---------------------------------2p1-------|---------2--------------------|
|----------0--------------------2-----0-----|-----0---4---------0---4------|
|-0-----------------------0-----------------|-0-----0-------0-----0--------|
|-----------------0-------------------------|---0-------0-----0-------0----|
|----6----|
|-3-|
|--3--|
E E E E E E
S S S S S S E E E S S
E E E E E E
S S S E E E E S S E
|-5---------------------------------0-|-0-------------0h1p0---0-2-4-5---7--|
|---------2-----5p3-5p3-5p3-2-3-6-----|---------4-----------4---------4----|
|---------0---------------------------|---------2-------------1---4--------|
|-----1---------2---------------5-----|-----3-------------------2----------|
|-0-----0---0---------0-------0---5---|-2-----2---2---------2--------------|
|---0-----------------------1---------|---2-----------0--------------------|
|-3-|
E E E E E E E
E E E E E E
E E E E E E E
|-8-------5-------------------|-12-----8-5--------------------|
|-----------6-------------0---|------------6-------------0----|
|-----------------5-----------|------------------5------------|
|-----0-------5-----4---4-----|--9---0-------5-----4---4------|
|-0-----0-5-----------0---5---|--0-----0-5-----------0---5----|
|---0-------------0---------4-|----0-------------0-------4----|

|-3-|
E Q

E E E
E
T T T T S S
E E E E E E
E E E E E E
E E E E E E
|-[8]----------17p13-------------------------|---------0--------------------|
|--------------------13----------------------|-----1-----1------------------|
|-----------------------14---2---3-------1---|-2-----2-------2--------------|
|-----0--------------------------------2---2-|---4-------------4-0---4-2----|
|-------8-<12>-----------------------1-------|-0-------------------0--------|
|--------------------------1-------1-----0---|------------------------------|
E E E E E E
E E E E E E
E E E E E E
||----------------------------|------------------------------|
||o-5-------------4-----------|-3-5-3---0--------------------|
||--------0-------------------|---------------2---0----------|
||--0---0---0-----0---0-6-0---|-0-----5-------0-----5--------|
||o---------------------------|-----2---2---------2---2------|
||----3-------3-----2-------2-|-----------3-----3-------3----|

E E E E E E
E E E E E E
E E E E E E
|---------------------------|-----5---3-----0--------------|
|-----0-------------3-------|-5-6--------------------------|
|-2-------------5-----------|---------------------0--------|
|-0-----5-------0-----5-----|-0---2-5-------0---0---0------|
|-----2---2---------2---2---|---------2--------------------|
|---3-------3-----3-------3-|-----------3-----3-------3----|

E E E E E E
E E E E E E
E E E E E E
|---------------------------|------------------------------|
|-5-------------4-----------|---4--------------------------|
|-------0-------------------|-6---6---------3--------------|
|-0---0---0-----0---0-6-0---|-------5-8-----------6--------|
|---------------------------|-4---4---4-----4---4---4------|
|---3-------3-----4-------4-|---4-------4-----2-------2----|

__________________________
|1.

E E E E E E
E E E E E E | E E E E E E
|---------------------------|----------------------------||
|---4-----------------------|-0-------------------------o||
|-6---6---------2-----------|---------------5-----0------||
|-------5-8---------3-------|-----5-8-7-----0---0---0----||
|-4---4---4-------3---3---3-|---5-----------------------o||
|---4-------4---2-------2---|-3---------3-----3-------3--||

2.
E

E E E E E E
E E E E E E
E E E E E E
|-1---0-1-3-5---5-------3---|-----5-3-1-0---0---1-0--------|
|-------------------3-------|-----------------------3-1----|
|---------------------------|------------------------------|
|-----2---2---------2---2---|-----0---------0---0----------|
|---0---0---0-----2---2---2-|------------------------------|
|-1-------------1-----------|-0-3-------------3------------|

E E E E E E
E E E E E E
E E E E E E
|---------------------------|------------------------------|
|-3---------------------4---|-5-------------4--------------|
|---------------------------|-------0----------------------|
|-0---2-6-2-----0-----5-----|-0---0---0-----0---0-6-0------|
|---0-------0-------2---2---|------------------------------|
|-----------------4-------3-|---3-------3-----4-------4----|

E E E E E E
E E E E E E
E E E E E E
|---------------------------|------------------------------|
|---4-----------------------|---4--------------------------|
|-6---6---------3-----------|-6---6---------2--------------|
|-------5-8-----------6-----|-------5-8---------3----------|
|-4---4---4-----4---4---4---|-4---4---4-------3---3---3----|
|---4-------4-----2-------2-|---4-------4---2-------2------|

________________________
|
| E E E E E E
E E E E E E
E E E E E E
|---------------------------||----------------0--------------|
|-0-------------------------||o-3----------------------------|
|---------------5-----0-----||--------0-------------2--------|
|-----5-8-7-----0---0---0---||------2---2---------4---4------|
|---5---------------------0-||o---2-------2-----4-------4----|
|-3---------3-----3---------||--3-------------3--------------|

__________________________
___________________________
|
1.
|
2.
| E E E E E E
E E E E E E
| E E E E E E
E E E E E E
|----------------------------||------------------------------|
|-0-------------------------o||-0----------------------------|
|---------------5-----0------||---------------5-----0--------|
|-----5-8-7-----0---0---0----||-----5-8-7-----0---0---0------|
|---5---------------------0-o||---5--------------------------|
|-3---------3-----3----------||-3---------3-----3-------3----|
Q
Q
E
E
Q
Q
Q
Q
E
|----------------------|-3----5-3-5---3--------|
|-5-----3-5---3--------|-----------------------|
|-0--0--0-----0--0--5--|-0--0---0-----0--0--0--|
|-4--4--4-----4--4--4--|-4--4---4-----4--4--4--|
|-3--3--3-----3--3--3--|-3--3---3-----3--3--3--|
|----------------------|-----------------------|
Q

|----------------------|-3-5-3-5-3-5---3----------|
|-5-----3-5---3--------|--------------------------|
|-0--0--0-----0--0--5--|-0---0---0-----0--0--0----|
|-4--4--4-----4--4--4--|-4---4---4-----4--4--4----|
|-3--3--3-----3--3--3--|-3---3---3-----3--3--3----|
|----------------------|--------------------------|
Q
E
E
E
E
Q
Q
Q
|-12----10------------1--|-5--------3----------|
|-13----12-12-8-5-----3--|-6--------5----------|
|--0--0----12-9-3--0--3--|-0--0--0--0--0--0----|
|--0--0-----0---0--0--0--|-0--0--0--0--0--0----|
|------------------------|---------------------|
|------------------------|---------------------|
Q
E
E
E
E
Q
Q
Q
Q
|-----------------------|-----------------------|
|-5----3-0--------------|-----------------------|
|-5----4---0------------|-2----------0----------|
|-0--0---0-----4-----5--|-5----------4----------|
|--------------3--3--3--|-3--3--3----3--3--3----|
|-----------------------|-----------------------|

E E E E E E
E E E E E E
E E E E E E
|---------------------------|------------------------------|
|-----1-------------1-------|-----1-------------1----------|
|---0---0---------0---0-----|---0---0---------0---0--------|
|-0-------0-----0-------0---|-0-------0-----0-------0------|
|---------------------------|------------------------------|
|-----------3-------------3-|-----------3-------------3----|

E E E E E E
E E E E E E
E E E E E
|--------------------------|-3-----5-3-5--3------------|
|-5-------3-5--3-----------|-5-----6-5-6--5------------|
|-0-------0-0--0-------5---|---0---0---0----0---0---0--|
|---4---4---4----4---4---4-|-0---0---0----0---0---0----|
|-3---3---3----3---3---3---|---------------------------|
|--------------------------|---------------------------|

E E E E E E
E E E E E E
E E E E E
|--------------------------|-3-5-3-5-3-5--3------------|
|-5-------3-5--3-----------|-5-6-5-6-5-6--5------------|
|-0-------0-0--0-------5---|---0---0---0----0---0---0--|
|---4---4---4----4---4---4-|-0---0---0----0---0---0----|
|-3---3---3----3---3---3---|---------------------------|
|--------------------------|---------------------------|

Q
E
E
E
E
Q
Q
Q
Q
|-12----10-8--------------|-5----------3--------|
|-13-----8---8---5-----6--|-6----------5--------|
|--0--0----9-----5-----7--|-0--0--0----0--0--0--|
|--0--0----0-----0--0--0--|-0--0--0----0--0--0--|
|-------------------------|---------------------|
|-------------------------|---------------------|

E E E E E E
E E E E E E
E E E E E E
|-0-------------------------|------------------------------|
|-1---1-------------1-------|-----1-------------1----------|
|---0---0---------1---1-----|---0---0---------0---0--------|
|-0-------0-----0-------0---|-0-------0-----0-------0------|
|---------------------------|------------------------------|

|-----------4-------------3-|-----------3-------------3----|
E E E E E E
E E E E E E
E E E E E E
|---------------------------|---------------5-7-8-4-5------|
|-----1-------------1-------|-----1-------------------6----|
|---0---0---------1---1-----|---1---1----------------------|
|-0-------0-----0-------0---|-0-------0---------0---4------|
|---------------------------|-----------0---------0--------|
|-----------4-------------4-|-----------------0-------0----|

|-3-| |-3-|
|-3-|
E E E E E E
E E E E E E
E E E E E E
E E E S S S E S E E E
|---------------------------|---------------5h7h8-4h5p4---4-7p5------|
|-5---5---5-----5---6-5-3---|---------------------------8-------6----|
|-------------------------4-|-5-------2------------------------------|
|-----0---4-------------4---|-----0---4-----------0---------4--------|
|-0-----0-------0---5-------|-0-----0-------0------------------------|
|---0-------0-----0---4---0-|---0-------0----------------------------|
|-3--| |--3--| |-3-|
|-3--|
|-3-| |-3--|
|-3--|
E E E E E E E E E
S S S T T T T S S S S S S T T T T S S S
|--------0-12p11-10p8p7-----------0-----------------0------0-------0-------|
|-------------------------10p9--------------0------------------------------|
|-9h10p8-----------------------10---8p7----------10---10-8-----------8-----|
|--------0-----------------------------[12]---9p8------------9h10-----[12]-|
|-0------------------------0-----------------------------------------------|
|-----------------0------------------------10------------0-----------------|
E E E E E E
E E E E E E
E E E E E E
S S E
|---------------5---5---5---|-5---------------------------0----|
|-1-------------------------|---------2-----3h5-3-2-3-6--------|
|---------2-----------------|---------0------------------------|
|-----0---4---------0---4---|-----1---------2---------5--------|
|-0-----0-------0-----0-----|-0-----0---0-------0---0---5------|
|---0-------0-----0-------0-|---0-----------------1------------|

E E

E S

|-3-|
E E E E E E
T T T T S S E E E E
E E E E E E E
E E E E E E
|-0-------------1p0h1p0---0-2-4-5-7-|-8-------5----------------------|
|---------4-------------4-------0-4-|-----------6-------------0------|
|---------2-----------------1-------|-----------------5--------------|
|-----3-----------------------2-----|-----0-------5-----4---4--------|
|-2-----2---2-----------2-----------|-0-----0-5-----------0---5------|
|---2-----------0-------------------|---0-------------0---------4----|
|-3-|
E E E E E E E
E E E E Q
E E E
E
T T T T S S
E E E E E E
|-12-----8-5------------------|-[8]---------17p13----------------------------|
|------------6-------------0--|-------------------13-------------------------|
|------------------5----------|-----------------------14---2---3------1------|
|--9---0-------5-----4---4----|-----0--------------------------------2--2----|
|--0-----0-5-----------0---5--|-------8-<12>----------------------1----------|
|----0-------------0-------4--|--------------------------1-------1----0------|
E

E E

E E

E E

E E

E E

E E

S S

S E

E E

|---------------------------|---------------------6------------|
|---------------------------|-----------------3h6--------------|
|-2-------------3-------1---|-2-------------3-----------1------|
|-----0---4---------2---5---|-----0---4-------------2---5------|
|-0-----0-------0-----------|-0-----0-------0------------------|
|---0-------0-----1---4---1-|---0-------0-------------4---1----|
E E E E E E
E E E E E E
E E E E E E
E E E E E E
|---------------13----------------|----10-------------------------------|
|---------------15----------------|----11-11--9-6-3---------------------|
|-2----------------------------10-|-------13-10-7-3---------------------|
|-----0---4-----------------14----|-------------------10----------------|
|-0-----0--------0----11-14-------|-11----------------11-11--8-5-1-5----|
|---0-------0------13-------------|----------------------13-10-6-4-1----|
H.
|-------------------|-------|
|-------------------|-------|
|-------------------|-------|
|-1-------1--1--1---|-1-----|
|-0-------0--0--0---|-0-----|
|-0-------0--0--1p0-|-------|
Duration
--------------W - whole; H
.

W.

Legend
-

half;
-

quarter;

Tablature
---------------h
p
Misc
----------|
||
||o
o|| - repeat end

- 8th;
note

16th;

32nd
dotted
Legend

hammer-on
pull-off
Legend

double
repeat

bar
bar
start