Sei sulla pagina 1di 244

LL

II
GGGGGGGGGGGG
AA
LL
II
GGGGG
AAAA
LL
II
GGG
AAAAAA
LL
II
GG
AAA AAA
LL
II
GG
AAA
AAA
LL
II
GGG
GGG
AAAAAAAAAAAA
LL
II
GGG
GGG
AAAAAAAAAAAAAA
LL
II
GGG
GGG
AAAA
AAAA
LLLLLLLL
II
GGGGGGGGGGGG
AAAA
AAAA
BBBBBB
BB
BB
BB
BBB
BBBBBB
BBBBBB
BB
BB
BB
BB
BB
BB
BBBBBBBBB

UU
UU
EEEEEEEEEEEE
UU
UU
EEEEEEEEEEE
UU
UU
EE
UU
UU
EEEEEEE
UU
UU
EEEEEEE
UU
UU
EE
UU
UU
EE
UUUUUUUUUUU
EEEEEEEEEEEE
UUUUUUU
EEEEEEEEEEEE

Utilizzate un font proporzionale (es. Courier New) per visualizzare


questo file!
1
2
3
4
5
6
7
8
1234567890123456789012345678901234567890123456789012345678901234567890123
4567890
ABCDEFGHIJKLMNOPQRSTUVWXYZ
^
|========================|
Se la Z non compare sotto il carattere n26 allora NON state usando un
font corretto!!
Lunghezza totale del file:
13.864 righe
369.758 caratteri
434 kb
Tigers sul WWW:
http://www.tigers.3000.it (qui e solo qui trovate sempre l'ultima
versione di questo file)
IAMS (It.Arti.Musica.Spartiti) su Usenet:
news://it.arti.musica.spartiti
IAMS sul WWW:
Visitate e contribuite ad Amosfree, il piu' grande archivio
di spartiti italiani on-line! http://www.amosfree.com #RIP# :(
################## NOTA LEGALE (IMPORTANTE) ####################
In base alla legge n.159 del 22.5.1993 il contenuto di questo file
e' da intendersi esclusivamente per attivita' didattica, di studio
e di ricerca. Ne e' consentito l'uso per esecuzioni pubbliche solo
nel caso i relativi spartiti non siano reperibili in commercio, e
fatti salvi i diritti dei rispettivi autori. Non si risponde di
eventuali usi impropri dei contenuti di questo file.
##################################################################

OSSERVAZIONE PERSONALE ALLA NOTA LEGALE:


Questo file, per il modo in cui e' stato concepito e strutturato,
costituisce secondo me un'opera unica per ampiezza e contenuti.
Ho sempre cercato infatti di mantenere nel file tutte le varie
versioni ed interpretazioni che mi arrivano, omettendo solo quelle
palesemente e grossolanamente errate. Pertanto io credo che nessun
canzoniere o simili esistenti in commercio possano dare agli amanti
della chitarra un contributo paragonabile a quello che, nel nostro
piccolo, abbiamo cercato di dare noi.
Data: 20.09.2002
NOVITA':
20.09.2002: Ad oltre un anno dall'ultima aggiunta e dopo un nuovo album
del
Liga, finalmente un aggiornamento, ch ecomprende tutto il
nuovo
album; tuttavia, l'aggiornamento non e' opera mia, ma di
"Pink Floyd" <francesco@inwind.it> che ringrazio per il
lavoro
svolto e per avermi concesso di aggiungerlo a questo. Non ho
avuto
tempo di guardare e/o correggere ed integrare i nuovi
spartiti.
Forse un giorno lo faro', per ora mi fido :)
31.05.2001: Aggiunte diverse TAB: TAB alternativa per *piccola stella
senza
cielo* e piccola aggiunta all'intro di *Marlon Brando e'
sempre
lui* ad opera di Thomas Laguzzi; TAB alternativa per l'intro
di
*Si viene e si va* e di *Forse mi trovo*, TAB per *Pesce
siluro*
grazie a Maurizio Urbani.
25.04.2001: Aggiunta *Ho ancora la forza*, di Ligabue-Guccini. L'ho
prelevata
direttamente da IAMS e chi l'ha postata non sapeva l'autore,
se
questi e' in ascolto e vuole essere citato si faccia vivo.
27.03.2001: Aggiunti un paio di accordi a *Con queste facce qui*. Grazie
a
MAURI-LIGA per la segnalazione
25.02.2001: Piccole correzioni alla TAB di *Ho messo via*
18.08.2000: Aggiunta una TAB semplificata per l'intro di *Kay e' stata
qui*,
opera di Alberto Martano.
31.05.2000: Aggiunta una TAB alternativa per *Si vienee si va*. Grazie a
Federico Carbone.
20.02.2000: E' stato individuato l'autore delle TAB dal capotasto
*strano*: si

chiama Marco e sono suoi anche i piccoli aggiustamenti che


seguono.
Aggiunta una TAB alternativa per il bridge in *Ho perso le
parole*,
in *L'odore del sesso* e l'intro di *Metti in cirolo il tuo
amore*.
01.02.2000: Benvenuti nell'ultimo anno del millennio! Purtroppo gli
aggiornamenti sono sempre piu' radi, e devo ammettere che e'
solo
colpa mia. Cerchero' di essere un po' piu' puntuale *da
adesso in
poi* :))
Aggiunta una versione alternativa di *Almeno credo*, Da:
Cristian
Gabbanini <cgabbanini@cervia.com>.
Aggiunta una TAB alternativa per *Quella che non sei* (non
l'ho
controllata ed e' del tutto diversa dall'altra...). L'autore
e'
Miki79.
Aggiunta una bella TAB di *Piccola stella senza cielo*
versione
studio, piu' TAB sparse di *Viva!* e *La porta dei sogni*.
Purtroppo ho perso il nome dell'autore perche' ho salvato gli
allegati cancellando poi il messaggio originale. Cmq lui si
dovrebbe
riconoscere facilmente per il modo particolare in cui segna
il
capotasto della chitarra; se qualcuno sa chi e' mi contatti:
saro'
felice di citarlo.
29.12.1999: Grazie ancora ad Alessandro Marini che ha mandato una serie
di
correzioni. Segue l'elenco di tutte le canzoni corrette:
Si viene e si va: aggiunte TAB
Almeno credo: aggiunte TAB, rivisitati gli ACCORDI
E: aggiunto il solo, rivisitati gli accordi
Baby, e' un modo super: aggiunte TAB
Una vita da mediano: aggiunte TAB
Kay e' stata qui: aggiunta una TAB
Sulla mia strada: aggiunta la canzone, con accordi e TAB
Forse mi trovo: aggiunta la canzone con gli accordi
Miss Mondo 99: aggiunta la canzone, con gli accordi e una TAB
10.10.1999: Aggiunta una versione piu' corretta di *Una vita da mediano*,
grazie a Cristian Gabbanini <cgabbanini@cervia.com>.
04.10.1999: Aggiunte un sacco di canzoni dell'ultimo album. Praticamente
tutte
grazie a Little Hawk, il postatore del mese :)
E' compresa una versione migliore di *Da adesso in poi*, che
ora e'
suonabile. Ho dovuto sopprimere l'altra per non gonfiare
ulteriormente il file.
30.09.1999: Aggiunta la TAB dell'intro di *Una vita da mediano*. Grazie a
me :)
Aggiunti anche gli accordi di *Da adesso in poi*. Grazie a:
BonoVx
<gisarci@tin.it>

23.09.1999: Aggiunta *Si viene e si va*, grazie a -Little Hawk-.


Piccolissima
modifica all'intro di *Marlon Brando e' sempre lui*, grazie a
Pietro Binda.
22.09.1999: Aggiunta un'altra versione di *Certe notti*, e' identica alla
mia
ma ha il testo scritto sotto la TAB. Grazie ad Andrea C. Per
ora
l'ho semplicemente aggiunta in coda alle altre, ma mi rendo
conto che sta diventando elefantiaca. Appena ho tempo metto
tutto a posto, ok?
Aggiunta *Almeno credo*, tratta da IAMS; grazie a Fabrizio
Cardinale
20.09.1999: Aggiunta *Non fai piu' male*, b-side del singolo che non
dovrebbe essere nell'album, l'ho presa da IAMS, postatore
_-*FRIDO*-_, a cui vanno i ringraziamenti.
14.09.1999: Aggiunta *Una vita da mediano*, coi soliti ringraziamenti per
Antonio e Giovanni V. <giovaval@tiscalinet.it>, trascrittori
rispettivamente del testo e degli accordi.
12.09.1999: Aggiunta una versione alternativa piu' fedele
all'originale di *Certe notti*. Grazie a miki79 per
la TAB.
Piccola nota: purtroppo mi sono accorto che ho perso
per strada l'abitudine di ringraziare chi invia le
trascrizioni nei *titoli di testa* di ciascun album,
per cui credo che piano piano verranno eliminate del tutto,
per lasciare i ringraziamenti solo insieme alla trascrizione
vera e propria. Chi dovesse restar fuori dopo questa
operazione mi scriva: provvedero' a reinserire il suo nome.
04.07.1999: Aggiunta *Il mio nome e' mai piu'*, grazie a .nuke
<gasta@iname.com>. Aggiunta una TAB per *Freddo cane
in questa palude*, grazie a Bologna Stefano.
Piccole novita' grafiche: ora ogni canzone termina con
una serie di +-+-+-+-+- e il titolo e' racchiuso da una
serie di tilde ~~~~ per aiutarvi a trovare meglio le
canzoni.
09.06.1999: E via! Prima niente per due mesi poi due aggiornamenti
in due giorni :)
Aggiunto il solo di *Balliamo sul mondo* (tratto da
IAMS). Grazie a Dave-hawk <davfede@tin.it>.
07.06.1999: Era ora! Dopo due mesi esatti finalmente un nuovo
aggiornamento: Aggiunta una TAB per le strofe di
*Sara' un bel souvenir*, grazie a Donald
<donald@excalhq.it>.
Aggiunto un altra versione del solo di *Certe notti*.
Questo viene da Alessandro Martino
<indigod2@club-internet.fr>.
Bonus: leggermente modificata la TAB dell'intro di
*Il cielo e' vuoto o il cielo e' pieno*: ora sembra
fatta da un vero chitarrista :).
That's all folks!
07.04.1999: Dopo la scorpacciata di febbraio, mi sono preso un po'
di pausa (e ho fatto tre esami :)) ) comunque ora ho
aggiunto i soli di *Il giorno di dolore che uno ha*,
grazie a: Francesco D'Offizi <fdoffizi@tin.it>
http://space.tin.it/musica/sdoffizi/;
chiedo anzi scusa a Francesco e a voi per averli tenuti
cosi' tanto tempo a marcire sul mio HD.
Aggiunto il solo di *Quella che non sei*, grazie a
Raffaele "MaDeT" d'Ettorre per la trascrizione e a

16.02.1999:

13.02.1999:

06.02.1999:
28.01.1999:
16.01.1999:

29.12.1998:
22.12.1998:

Daniele (kikkko), per avermelo fornito.


(ding) Messaggio promozionale: Daniele ha anche un
sito molto bello sul Liga, se siete fan dategli pure
un'occhiata:
Ligabue su Radio Flit
http://space.tin.it/musica/dantonuc
Standing ovation in onore di:
Alessandro Marini
questo grand'uomo, infatti, ha riveduto e corretto
tutto il canzoniere aggiungendo e correggendo un
mucchio di canzoni. Da oggi il canzoniere e' ancora
piu' completo. Le aggiunte e correzioni seguono:
Aggiunta una TAB per l'intro di *Marlon Brando e'
sempre lui* e il finale strumentale arrangiato per
chitarra.
Aggiunta la TAB completa dell'intro di *Non e' tempo
per noi*.
Aggiunta una TAB per l'intro di *Radio radianti*.
Aggiunto il fill di *Salviamoci la pelle*
Aggiunto l'intermezzo di *Con queste facce qui*.
Aggiunta un'intro alternativa per *Sara' un bel
souvenir*.
Aggiunte TAB per l'intro e il Fill di *AAA qualcuno
cercasi*.
Aggiunta l'intro di *Dove fermano i treni*.
Aggiunte le TAB di *I duri hanno due cuori*.
Aggiunta un'intro per *La ballerina del carillon*.
Aggiunta un'intro di *Lo zoo e' qui*.
Corretta la TAB di *Piccola citta' eterna*.
Aggiunta l'intro di *Walter il mago*.
Ampiamente migliorata l'intro di *Quando tocca a te*.
Aggiunta l'intro di *Male non fara'*.
Aggiunte versioni alternative per i solo di *Cerca nel
cuore*.
Aggiunta l'intro di *Fuoritempo*.
Aggiunti testo ed accordi de *Il Gringo '91* e corretti
di conseguenza gli accordi de *Il Gringo '94*.
Aggiunta l'intro de *I <<ragazzi>> sono in giro*.
Aggiunto il solo di *Tra palco e realta'*.
Aggiunto *Ultimo tango a Memphis* (era ora!).
Aggiunta un'altra versione dell'intro di *Libera nos
a malo*. Aggiunto il solo di male non fara'. Aggiunta
versione alternativa di *Metti in circolo il tuo
amore*. Grazie a Stefano Bologna <bobo@netbusiness.it>.
Aggiunto il riff di *Metti in circolo il tuo amore*
su trascrizione mia.
Aggiunti testo e accordi di *Siamo in onda*, grazie
a Monica <mpan@altavista.net>.
Aggiunta la TAB dell'intro di *La ballerina del
carillon*. Trascrizione mia.
Buon anno a tutti! Aggiunta una TAB ALternativa per
l'intro di *libera nos a malo*, grazie a Marco
"Gibson" Marengo. Aggiunto il solo di *Ho perso le
parole*, grazie a Alex De Large <dedalus@exploit.it>.
Aggiunta la TAB di *Mezzanotte di fuoco*, grazie a
Minosse.
Aggiunta la TAB dell'intro di *AAA qualcuno cercasi*
Grazie a Gianfranco di Summa.
Aggiunte diverse TAB ad opera di Andrea Zanovello.
In particolare date un'occhiata alla TAB di *Radio

radianti*.
17.12.1998: Corretta la TAB di *Quando tocca a te*. Grazie a
<bobo@netbusiness.it>.
04.12.1998: Aggiunti gli accordi esatti di *Metti in circolo il
tuo amore*. grazie a Giorgio <tina@tqs.it>
30.11.1998: Aggiunta l'ultima canzone ancora mancante: *L'han
detto anche gli Stones*. Grazie a D'Ambros. Diverse
aggiunte e correzioni sparse grazie a Palma Fulvio
<Dedalus@mail.dex-net.com>.
Aggiunta *Metti in circolo il tuo amore. Grazie per
il testo a Bomarn <bomarn@usa.net>
29.11.1998: Aggiunto il basso e il solo a *Balliamo sul mondo*
su trascrizioni mie.
28.11.1998: Parecchie aggiunte grazie al contributo di
Andrea Zanovello <drago_77@hotmail.com>
in particolare corrette le TAB di *Bar Mario* e
migliorata quella di *Balliamo sul mondo*
24.11.1998: Aggiunte le TAB a *Ancora in piedi*. Trascrizioni mie
23.11.1998: Corrette le TAB di *Ho perso le parole*. Forte
ispirazione da parte di Palma Fulvio
<Dedalus@mail.dex-net.com>
Aggiunti gli accordi di *A che ora e' la fine del
mondo?* e altre piccole cose che erano finite nelle
pieghe del mio HD fra cui TAB di *Bambolina e
barracuda* e *Ho messo via*. Le mie scuse a THE SUN
per aver tardato tanto a mettere in linea le sue
trascrizioni
22.11.1998: Aggiunte alcune TAB di *Quella che non sei* e *Buon
compleanno Elvis!*. Grazie a Stefano Bologna
bobo@netbusiness.it
12.11.1998: Aggiunte nuove TAB per: *Urlando contro il cielo
(live)*, *Bambolina e Barracuda* e *Ho messo via*. Un
grosso grazie a RED!
05.11.1998: Aggiunta *Fuoritempo* trascrizione mia
04.11.1998: Aggiunta *Il Gringo '94* trascrizione mia
27.10.1998: Aggiunta altra versione delle TAB di *Seduti in riva
al fosso*, opera di MarcoP <Notting65@hotmail.com>
20.10.1998: Aggiunta la TAB dell'intro di *Marlon Brando e' sempre
lui*; Corretta l'intro di *Salviamoci la pelle*;
Aggiunta l'intro di *Vivo morto o x*; leggera
correzione alla TAB di *Certe notti*. Per tutte queste
correzioni e aggiunte un grosso grazie a Red
Questo canzoniere e' frutto di molti mesi [anni ormai!!] spesi
trascrivendo le canzoni di Ligabue e di molte notti spese navigando
per la rete alla ricerca delle canzoni che mi mancavano. Un grazie
particolare va a tutti coloro che mi hanno aiutato nella trascrizione o
nella correzione dei pezzi. Ho cercato di ringraziarvi uno per uno, se
qualcuno fosse stato dimenticato, mi scriva e saro' felice di
tributargli gli *onori* che merita.
N.B. Questo canzoniere non ha alcuna pretesa di essere
*ufficiale*: tutte le canzoni in esso contenute sono frutto
di trascrizioni amatoriali e pertanto spesso imperfette od
imprecise. Il loro scopo e' solo quello di dare un'idea sul
modo di suonare una canzone. Inoltre le trascrizioni,
hanno bisogno di un costante lavoro di verifica e correzione,
(il labor limae degli scrittori romani :) ). Il vostro
contributo sara' sempre ben accetto :)

Le canzoni sono in ordine cronologico e raggruppate per album:


o
o
o
o
o
o
o
o
o
o
o

Ligabue (1990)
Lambrusco coltelli rose & pop-corn (1991)
Sopravvissuti e sopravviventi (1993)
A che ora e' la fine del mondo? (1995)
Buon compleanno Elvis (1996)
Tra palco e realta' (live + 2 inediti) (1997)
Radiofreccia (1998)
Il mio nome e' mai piu' (1999) [CD singolo]
Una vita da mediano (1999) [CD singolo + un inedito]
Miss mondo '99 (1999)
Fuori come va? (2001)

ELENCO DELLE CANZONI ANCORA MANCANTI:


o Quelle strumentali dell'album *Radiofreccia*, tranne *Mezzanotte di
fuoco*
N.B. Ho usato per gli accordi la notazione internazionale, che
comunque si puo' facilmente trasformare in quella italiana
secondo il seguente schema:
C
D
E
F
G
A
B

=
=
=
=
=
=
=

DO
RE
MI
FA
SOL
LA
SI

Inoltre ho aggiunto all'inizio delle canzoni le diteggiature dagli


accordi non 'standard' mettendo a sinistra il mi basso e a destra
il mi cantino.
Es. DO=C 032010
LAm=Am 002210
Legenda per le tablature (almeno quelle scritte da me):
/ = Slide (glissato)
h = hammer-on
p = pull-off
~ = tremolo (mano sinistra)
vv = tremolo (leva)
NOTA: Trascrivere, mettere insieme e portare su Internet queste
canzoni mi e' costato tempo e fatica: se usate o distribuite tutto
o parte di questo canzoniere, non dimenticate di citare il mio nome
e quello di tutti coloro che mi hanno aiutato nella trascrizione.
Grazie.
:)
Contribuite ad aumentare il numero di canzoni italiane disponibili
sulla rete e su OLGA!!!
Visitate e contribuite al newsgroup it.arti.musica.spartiti!
==================================================================
ALBUM LIGABUE (1990)

==================================================================
Le trascrizioni sono opera mia tranne dove specificato
Songs: Balliamo sul mondo (CRD, TAB e BTAB)
Bambolina e barracuda (CRD e TAB)
Piccola stella senza cielo (CRD e TAB)
Marlon Brando e' sempre lui (CRD e TAB)
Non e' tempo per noi (CRD e TAB parziale)
Bar Mario (CRD e TAB)
Sogni di R&R (CRD)
Radio Radianti (CRD)
Freddo cane in questa palude (CRD)
Angelo della nebbia (CRD)
Figlio d'un cane (CRD e TAB)
BALLIAMO SUL MONDO
Intro: D G C Am
Riff principale (si ripete anche durante il ritornello):
e:----------------------|--5-----------------------|
B:----------------------|--------8-----7-----8-----|
G:-------------------7--|-----7-----7-----7-----7--|
D:----------------------|--------------------------|
A:----------------------|--------------------------|
E:----------------------|--------------------------|
------------------------|--5-----------------------|
--7-----8--7------------|--------8-----7-----8-----|
-----7----------7----7--|-----7-----7-----7-----7--|
------------------------|--------------------------|
------------------------|--------------------------|
------------------------|--------------------------|
---------------------7-----8---------------7---7\5~---------------------------------------------------------------NOTA2: All'inizio sembra che ci siano 'troppe note' e che la cosa
non torni; continuate a provare e convincetevi: va suonata cosi'.
Se vi puo' aiutare ho recuperato un MIDI (potete usarlo con
Guitare Pro).
Se proprio non ci riuscite provare a sopprimere i re (III corda
VII tasto) intermedi: suona bene lo stesso.
[Altra versione fornita da Andrea Zanovello: stesse note ma con
diverse posizioni (in effetti molto piu' comodo soprattutto se
usate un barre' sul 7 tasto (spesso il Liga dal vivo usa uno
slide sull'indice)]
e:----------------------|--------------------------|
B:----------------------|--10----8-----7-----8-----|
G:-------------------7--|-----7-----7-----7-----7--|
D:----------------------|--------------------------|
A:----------------------|--------------------------|

E:----------------------|--------------------------|
------------------------|--------------------------|
--7-----8--7------------|--10----8-----7-----8-----|
-----7----------7----7--|-----7-----7-----7-----7--|
------------------------|--------------------------|
------------------------|--------------------------|
------------------------|--------------------------|
---------------------7-----8---------------7-----5~---------------------------------------------------------------Sotto la strofa l'elettrica fa dei power chord con palm muting:
A5:
D5:
G5:
C5:

577xxx
x577xx
355xxx
x355xx

Am
D
G
C
Am
Siamo della stessa pasta bionda non la bevo sai.
D
G
C
Am
Ce l'hai scritto che la vita non ti viene come vuoi.
D
G
C
Am
Ma e' la tua e per me e' speciale e se ti puo' bastare sai
D
G
C
Am
Che se hai voglia di ballare uno pronto qui ce l'hai
Rit.
D
Balliamo sul mondo!!
G
C
Am
Va bene qualsiasi musica
D
cadremo ballando
G
C
Am
sul mondo lo sai si scivola.
D
G
Facciamo un fandango
C
Am
La' sotto qualcuno ridera'
D
G C Am
Balliamo sul... mondo!!!!
Non ti offro grandi cose pero' quelle li' le avrai
Niente case ne' futuro ne' certezze, forse guai
Ma se dall'Atlantide all'Everest non c'e' posto per noi
Guido io in questo tango ci facciamo posto dai
Rit.
D

Balliamo sul mondo!!


G
C
Am
Va bene qualsiasi musica
D
cadremo ballando
G
C
Am
sul mondo lo sai si scivola.
D
G
Facciamo un fandango
C
Am
La' sotto qualcuno fischiera'
D
G C Am
Balliamo sul... mondo!!!!
[Riff principale]
[Assolo] la divisione in battute serve solo a separare
le parti del solo
vvvvvvvv leva tremolo vvvv
e:---------|----------10----|--------------------------B:-10------|-------5------5-|--8/10-8------8/10-8------G:--7------|--7--7--------5-|---------10-7--------10-7-D:---------|----------------|--------------------------A:---------|----------------|--------------------------E:---------|----------------|--------------------------e:---------------------10-/17---7-8-10-|----------B:-8/10-8---------10-8-----------------|----------G:--------10-7--7----------------------|----------D:-------------------------------------|--5-5-7-7-A:-------------------------------------|--5-5-7-7-E:-------------------------------------|----------e:-----------B:-----------G:------------ si ripete e
D:--5-5-5-7-7- finisce con
A:--5-5-5-7-7E:------------

--10---------------------------

[Nuova versione, probabilmente piu' corretta (ma non ho


controllato personalmente, per cui le lascio tutte e due :) )]
------------------------------------10--------8--------------------5----------8------8-/10b-r-8-----8-10-----------------0------------5-7----5-7-------------------------------------7-----------------------------------------------------------------------------------------------------------------------------------------------------------------------------------10b-r-10-10-8---------8-10-10-10----8---/10---/12---/15-------------------10-8-10-------------------------------------------------------------------------/8--/10---/12---/14--------------------------------------------------------------------------------------------------------------------------------------------------------------------------------------------8-----/10--/12-12/15----17 17b-r--15p14h15p14-------------------------------------------------------------15-----------

-8--/10-10-/12------------------------------------------------------------------------------------------------------------------------------------------------------------------------------------------------------------------------------------------------------------------------------------------------------------------------------------------15-----15-----15-------------------14--------12-14-12----14b--r-14b--r-14b--r
-12-12-12-12-14-12---12-14-12------------------------------------------------------------------------------------------------------------------------------------------------------------------------17--15-14-15-14-12-10^^^^^^^^---------------15-15-15-15--15---------------------------------------------14-14-14-14-----------------------------------------------------------------------------------------------------------------------------------------------------------12\\\\\\\\\\\\
------------------------------------------------------------Tabbed by Dave-hawk
davfede@tin.it
Fred e Ginger sono su una supernova sopra noi
Chiudi gli occhi e tieni il tempo e sara' quasi fatta dai
C'e' chi vince e c'e' chi perde, noi balliamo casomai
Non avremo classe ma abbiamo gambe e fiato finche' vuoi
vvvv
vvvv <--- leva del tremolo
e:--------------8----B:---10--8--------8--G:-7----------5------D:-------------------A:-------------------E:-------------------Ballando, ballando sul ballando sul mondo
Facendo, facendo un facendo un fandango
Ballando, ballando sul ballando sul mondo
Ballando, ballando sul ballando sul
Rit.
D
Balliamo sul mondo!!
G
C
Am
Va bene qualsiasi musica
D
cadremo ballando
G
C
Am
sul mondo lo sai si scivola.
D
G
Facciamo un fandango
C
Am
La' sotto qualcuno applaudira'
D
G C Am
Balliamo sul... mondo!!!!
[BASSO]
Strofa:

|--------------------------|--------------------------|
|--0--0--0--0--0--0--0-----|--------------------------|
|-----------------------0--|-----------------------2--|
|--------------------------|--3--3--3--3--3--3--3-----|
--------------------------|--------------------------|
--------------------------|--------------------------|
--3--3--3--3--3--3--3--3--|--3--0--2--0--3--0--4--0--|
--------------------------|--------------------------|
Nel ritornello la penultima battuta e' sostituita:
la prima volta da questa:
--------------------------|
--------------------------|
--3--0--0--0--0--0--0--0--|
--------------------------|
la seconda e la quarta volta:
--------------------------|
--------------------------|
--0--0--0--0--0--0--0--0--|
--------------------------|
e la terza:
--2--2--2--2--2--2--2-----|
-----------------------2--|
--------------------------|
--------------------------|
mentre nell'intermezzo suona:
--------------------------|
--------------------------|
--0----0----0----0----0---|
--------------------------|
da meta' del solo (dove la chitarra fa l'ultimo
pezzo *ritmato*) in poi diventa:
|--------------------------|
|--0--0--0--0--0--0--0-----|
|-----------------------0--|
|--------------------------|
--------------------------|-----------------------0--|
--------------------------|--------------------------|
-----------------------2--|--3--3--3--3--3--3--3-----|
--3--3--3--3--3--3--3-----|--------------------------|
--2--2--2--2--2--2--2-----|--------------------|
-----------------------2--|--0-----------------|
--------------------------|--------------------|
--------------------------|-----------------1--|
--------------------|-------------------|
--------------------|-------------------|
-----------------2--|--3----------------|
--3-----------------|-------------------|
---------------------------|

---------------------------| ripete quattro o cinque


----0--2--0--3---0--4--0---| volte e poi diventa:
---------------------------|
|--------------------------|--0--0--0--0--0--0--0-----|
|--0--0--0--0--0--0--0--4--|-----------------------0--|
|--------------------------|--------------------------|
|--------------------------|--------------------------|
--------------------------|--------------------------|
--------------------------|--------------------------|
--3--3--3--3--3--3--3--3--|--0--0--0--0--0--0--0--0--|
--------------------------|--------------------------|
per quattro volte e poi ritorna sul giro normale
+-+-+-+-+-+-+-+-+-+-+-+-+-+-+-+-+-+-+-+-+-+-+-+-+-+-+-+-+-+-+-+-+~~~~~~~~~~~~~~~~~~~~~
BAMBOLINA E BARRACUDA
~~~~~~~~~~~~~~~~~~~~~
D4: x00233
G: 320033 |
Em7: 022033 |-Suggeriti
C: x32013 |
Intro: G C Em7 C
[grazie a RED per la TAB]
-------------|-------|----------|-0tr-|
-13--12------|-5tr---|----8-----|-1tr-|
-12--12--12\-|-5tr---|-7-----7\-|-0tr-|
-12--12------|-5tr---|-5--------|-----|
-------------|-------|-7--------|-3tr-|
-------------|-------|----------|-----|
--------------------------------------------Riff:
(G)
(C) (Em7) (C)
vvvv
e:-8-8-7----------------------B:--------8--5------8--------G:--------------7-7---7-5----D:---------------------------A:---------------------------E:---------------------------[leggera correzione di Andrea Zanovello]
[I riff seguenti vengono da THE SUN
si sentono sotto le strofe qua e la']
Riff 1:
E--------------8----------------------8----------------------8------------B---8--10--12-----12--10---8--10--12-----12--10---8--10--12-----8--10--8---

G-------------------------------------------------------------------------D-------------------------------------------------------------------------A-------------------------------------------------------------------------E-------------------------------------------------------------------------Riff 2:
E---10---------8----------10---------8----------------------8-------------B-------8--12-----12--8-------8--12-----12--10---8--10--12-----12--8--10-8G-------------------------------------------------------------------------D-------------------------------------------------------------------------A-------------------------------------------------------------------------E-------------------------------------------------------------------------[Inoltre suggerisce di mettere i due accordi che seguono:
F5:x87565
G4sus3:xx5788
nei punti dove fa:
Bb
F5 G4sus3
E la camera ora e' un flacone d'odore di lei
[...]
Bb
F5
G4sus3
E ancora le sue mani, mani, mani, e ancora le sue labbra, labbra, labbra,
labbra
Suonano benissimo, ma sono un po' difficilotti per cui li ho lasciati
a parte per i piu' esperti]
Giro di base: G C Em7 C
(Parlato)
La camera ha poca luce
e poi e' molto piu' stretta
di come da giu' immaginavo
ho pensato molto a lei qua dentro
l'immaginavo sempre sola
chissa' con che diritto poi
(cantato)
G
Mettiti a sedere
C
Cosa vuoi da bere?
Em7
C
Quello che hai purche' sia forte.
Torno tra un momento!
Cerco un argomento
Recitare la mia parte.

(parlato)
gia' perche' c'e' sempre una
parte da recitare
si farebbe molto prima
se lei tornasse vestita soltanto del bicchiere
(cantato)
poi torna ed e' cosi' bella bella bella bella bella bella
nell'accappatoio
ed e' proprio quella quella quella quella quella quella
che io immaginavo
Bb
F
e la camera ora e' un flacone d'odore di lei
G
ba-ba-ba bambolina
C
ba-ba fammi giocare
Em7
C
ba-ba-ba-ba regalami un po' di calore
G
ba-ba-ba bambolina
C
ba-ba la' fuori e' dura
Em7
C
ba-ba-ba-ba posso stare qui?
G
C
Dai diamoci una scossa
Em7 C G
Prendiamoci una scossa
(parlato)
la camera prende fiato pure lei
attraverso questi odiosi facciotti immortalati in troppi poster
la bambolina e' piu' vecchia di me
ma saranno i poster, le spalle, e la voce
che potrei essere suo zio
(Cantato)
dai non te ne andare.
Vuoi un po' dormire?
Vorrei tanto che restassi un po'.
Si' che si puo' fare ma dovrei chiamare,
dimmi dove hai il telefono
E ancora le sue mani mani mani
E ancora le sue labbra labbra labbra
G
ba-ba-ba bambolina
C
ba-ba vuoi giocare?
Em7
C
ba-ba-ba beh io sono qua un po' di calore
ba-ba-ba bambolina
ba-ba-ba barracuda
ba-ba ma dolcissima:
viviamo un po'assieme
moriamo un po' assieme
F
G
lei ha un brutto tic adesso
F
Am
Dice cose strane
F
G
D D4 D

E mi guarda come non vorrei


Adesso devo proprio andare
Ti chiamo prima o poi
Lo so che se voglio posso restare
Ma non insistere dai!
Dai aprimi la porta porta porta porta porta
Mi vuoi aprir la porta porta porta porta porta
ba-ba-ba bambolina
giu'-giu' quella pistola
ba-ba va bene resto qua cosa devo fare?
ba-ba-ba bambolina
ba-ba vuoi che parliamo
ba-ba non mi legare dai
E' solo un gioco nuovo?
Dimmi che e' un gioco nuovo
ba-ba-ba bambolina
giu'-giu' quella pistola
ba-ba va bene resto qua cosa devo fare?
ba-ba-ba bambolina
ba-ba-ba barracuda
ba-ba-ba ma dolcissima
viviamo un po'assieme
moriamo un po' assieme
+-+-+-+-+-+-+-+-+-+-+-+-+-+-+-+-+-+-+-+-+-+-+-+-+-+-+-+-+-+-+-+-+~~~~~~~~~~~~~~~~~~~~~~~~~~
PICCOLA STELLA SENZA CIELO
~~~~~~~~~~~~~~~~~~~~~~~~~~
G7+: 320002
[TAB Versione studio]
Autore: Marco
Intro (e conclusione):
E
B
G
D
A
E

//---5-------|--------------|
||-----------|7--5----------|
||7-----7-7--|------7--6-7--|
||-----------|--------------|
||-----------|--------------|
\\-----------|--------------|

2 volte

I strofa (solo basso):


G
D
A
E

//------------|---------------|
||------------|---------------|
||2-2---------|5-5------------|
\\-----3-3-3--|-----5-5--3-3--|

Ritornello:
E
B
G
D
A

//------7-------|------3-------|--------------|--5------3----|
||----7----7----|----3----3----|------3-------|----5------3--|
||--7--------7--|--4--------4--|----2----2----|--------------|
||9-------------|5-------------|--4--------4--|7------5------|
||--------------|--------------|5-------------|--------------|

4 volte

E \\--------------|--------------|--------------|--------------|
II strofa:
Accordi trasportati avanti di un'ottava
Bm
E 14
B 15
G 16
D X
A X
E X

G
10
12
12
X
X
X

D
14
15
14
X
X
X

A
12
14
14
X
X
X

G
10
12
12
X
X
X

Ritornello (come sopra)


Poi:
E //----5----5--|----5----5--|----5-------|--------------|
B ||------------|------------|-------5b&r-|7-7-5-5-7-5---|
G ||7-7----7----|7-7----7----|7-7---------|------------7-|
D ||------------|------------|------------|--------------|
A ||------------|------------|------------|--------------|
E \\------------|------------|------------|--------------|
(b&r=bend & relase)
Un ultimo ritornello e chiude come l'intro!
[NOTA: La TAB che segue e' opera di THESUN <thesun@tdnet.it>]
Questa trascrizione non e' quella del pezzo originale, ma
dell'arrangiamento che Liga suona in tutti i suoi concerti; a mio
avviso (e a quanto pare, anche a suo avviso) e' di gran lunga
migliore dell'originale... comunque, in concerto, Luciano non la
esegue mai fino in fondo, ma improvvisa un intermezzo dopo la
prima strofa
Tune:A
Bm:x24432

B2:x24422

G:320033

D:xx0232

D7+:xx0222

A:x02220

Riff 1 (chitarra a 12 corde):


E----------------------------------------------------------------B-------------------------------------7--------------------------G---7--9--7--11---7--9--7----7--9--7-----7--9--7-----------------D-------------------------------------------------11--7----------A----------------------------------------------------------------E----------------------------------------------------------------Riff 2 (chitarra a 12 corde):
E-----------------------------------7-------B--------------------------10-----------10--G---7--9--7--11---7--9--7------(7)----------D-------------------------------------------A-------------------------------------------E-------------------------------------------E------------------------------B------------------------------G-7--9--7--11--7---9--7---------

D------------------------11--7-A------------------------------E------------------------------Intro: Bm B2 Bm B2 G D D7+ D D7+ A G x6


Il B2 e il D7+ sono solo di passaggio; l'intro e' suonata alla
prima battuta solo da Liga alla chitarra, poi da Liga e Fede, poi
con Mel (terza battuta, riff 1 e 2), Rigo (quarta) e Robby
(quinta)
-----------------------------------------------------------------[Nuova TAB alternativa, da Thomas Laguzzi]
-- Piccola stella senza cielo -- Tabbed By Thomas "QbProg" Laguzzi -=20
laguzzi@newmail.net
-=20
Per il suono usate un delay rapido (200ms-240ms) e un compressore, =
dovrebbero bastare
Gli accordi usati nei versi della canzone sono molto alti, sopra il =
12=B0 tasto,=20
nel primo verso si sentono pochissimo, nel secondo sono suonati =
normalmente.
Nel ritornello gli accordi sono ai primi tasti e sono arpeggiati.
Riff Introduzione (senza distorsione)
Bm
G
D
A G
E-----5-----------|--2-(0)-------|
B--3-----3-3------|-----5--3-2-3-|
G-----------------|--------------|
D-----------------|--------------|
A-----------------|--------------|
E-----------------|--------------|
Accordi durante il verso
Bm

G=20

E--14---15---14---17---15---| =20
B--15---15---15---17---15---|
G--16---16---14---18---16---|
D-------17--------19---17---|
A---------------------------|
E---------------------------|
Riff 2 (con distorsione)
E-------5-------5-------5------5-----5--------|
B--3-3-----3-3-----3-3-----3-3---3-3---3------|
G---------------------------------------------|
D---------------------------------------------|
A---------------------------------------------|
E---------------------------------------------|
E---------------------------------------------|

B---7-7-7-7-5--5-7-5-3------------------------|
G---------------------------------------------|
D---------------------------------------------|
A---------------------------------------------|
E---------------------------------------------|

Intro: /Bm7 / G7+ / D / A G/


Bm
G7+
Cosa ci fai
D
In mezzo a tutta
A
G
Questa gente
Bm

G7+
Sei tu che vuoi
D
A
G
O in fin dei conti non ti frega niente
Tanti ti cercano
Spiazzati da una luce senza futuro.
Altri si allungano
Vorrebbero tenerti nel loro buio
Ti brucerai
Piccola stella senza cielo.
Ti mostrerai
Ci incanteremo mentre scoppi in volo
Ti scioglierai
Dietro a una scia un soffio, un velo
Ti staccherai
Perche' ti tiene su soltanto un filo, sai
Tieniti su le altre stelle son disposte
Solo che tu a volte credi non ti basti
Forse capitera' che ti si chiuderanno gli occhi ancora
O soltanto sara' una parentesi di una mezz'ora
Ti brucerai
Piccola stella senza cielo.
Ti mostrerai
Ci incanteremo mentre scoppi in volo
Ti scioglierai
Dietro a una scia un soffio, un velo
Ti staccherai
Perche' ti tiene su soltanto un filo, sai
+-+-+-+-+-+-+-+-+-+-+-+-+-+-+-+-+-+-+-+-+-+-+-+-+-+-+-+-+-+-+-+-+~~~~~~~~~~~~~~~~~~~~
NON E' TEMPO PER NOI
~~~~~~~~~~~~~~~~~~~~
[Intro]: [D]G D C Em [D]G D C G
^^^^
^^^^
|
|
slide sulle tre corde inferiori molto veloce per poi tornare

al D; cosi':
[TAB di Alessandro Marini]
SOL
RE
DO
MIm
e-2/7-----7-7-7-7-|-----2-----2-----|-0---------------|-0-----------0-0-|
B-3/8---8-8-8-8-8-|-----3-----3-----|-1-------1-1-----|-0-----------0-0-|
G-2/7-----7-7-7-7-/-2---2-----2-----|-0-------0-0-----|-0---------0-----|
D-0-------------0-|-----------------|-2-------2-2-----|-2---------------|
A-----------------|-----------------|-3-------3-3-3---|-2---------------|
E-----------------|-----------------|-----------------|-----------------|
1 . 2 . 3 . 4 .
1 . 2 . 3 . 4 .
1 . 2 . 3 . 4 .
1 . 2 . 3 . 4 .
SOL
RE
DO
SOL
e-2/7-----7-7-7---|-----2-2---2-----|-0---------------|-3-----------3-3-|
B-3/8-----8-8-8-8-|-----3-3---3-----|-1-------1-1-----|-3-----------3-3-|
G-2/7-----7-7-7-7-|-----2-2---2-----|-0-------0-0-----|-0-----------0-0-|
D-0---------------|-----0-0---0-----|-2-------2-2-----|-0---------0-----|
A-----------------|-----------------|-3-------3-3-----|-2---------------|
E-----------------|-----------------|-----------------|-3---------------|
1 . 2 . 3 . 4 .
1 . 2 . 3 . 4 .
1 . 2 . 3 . 4 .
1 . 2 . 3 . 4 .
C
D
Ci han concesso solo una vita
G
D/F#
C
Soddisfatti o no qua non rimborsano mai
D
E calendari a chiederci se
G D
Em
stiamo prendendo abbastanza abbastanza
C
D4
D
Se per ogni sbaglio avessi mille lire
C
D
Che vecchiaia che passerei
Strade troppo strette e diritte
Per chi vuol cambiar rotta oppure sdraiarsi un po'
Che andare va bene pero'
A volte serve un motivo, un motivo
Certi giorni ci chiediamo e' tutto qui?
D4
E la risposta e' sempre si'
D
G
D
C
Em
Non e' tempo per noi che non ci svegliamo mai
G
D
Em
Abbiam sogni pero' troppo grandi e belli sai
C
D
Em
A
Belli o brutti abbiam facce che pero' non cambian mai
C
D
F
G
Non e' tempo per noi e forse non lo sara' mai
[Strumentale come l'intro]
G D C Em G D C G
Se un bel giorno passi di qua
lasciati amare e poi scordati svelta di me
che quel giorno e' gia' buono per amare qualchedun'altro
qualche altro
dicono che noi ci stiamo buttando via
ma siam bravi a raccoglierci.

Non e' tempo per noi che non ci adeguiamo mai


Fuorimoda, fuoriposto, insomma sempre fuori dai
Abbiam donne pazienti rassegnate ai nostri guai
Non e' tempo per noi e forse non lo sara' mai
Non e' tempo per noi che non vestiamo come voi
Non ridiamo, non piangiamo, non amiamo come voi
Forse ingenui o testardi
Poco furbi casomai
Non e' tempo per noi e forse non lo sara' mai
+-+-+-+-+-+-+-+-+-+-+-+-+-+-+-+-+-+-+-+-+-+-+-+-+-+-+-+-+-+-+-+-+~~~~~~~~~
BAR MARIO
~~~~~~~~~
Intro: (spesso ripetuta durante la canzone)
[TAB riveduta e corretta da Andrea Zanovello]
(G)
E:----------------------------------------------------------------B:----------------------------------------------------------------G:----------------------------------------------------------------D:-------5--5---------5---------3--------5--5-----------5--------3A:-----------------------3-4-5-----------------------------3-4-5--E:-2/3-3-------2/3-3----------------3-3---------2/3-3-------------Slide mooolto rapido |
(C)
(G)
E:-----------------------------------------------------------B:-----------------------------------------------------------G:-----------------------------------------------------------D:------5--5-------5-------3----------5--5---------5-------3--A:-3-3-------2/3-3---3-4-5---------------------------3-4-5---E:------------------------------3-3---------2/3-3------------G
Il buio arriva ma non e' troppo spietato
C'e' qualche stella e' come un disegno spezzato.
C
G
Qualche lampione piccolo lume isolato freddo e perduto.
G
Le strade vuote non c'e' neanche il classico cane
Ha vinto ancora signora televisione
C
G
Signora o troia agita il culo sembra con intenzione
Il commendatore gioca la carta sbagliata
il suo compagno proprio non l'ha digerita
pero' sta zitto tanto con lui non si vince mai una partita
Bistecca intanto urla per una primera
e sul suo letto si sta ballando un bolero
sua moglie brucia di febbre di vita e si sta facendo le cure
D
C
La guardia si fa un caffe' e poi se ne va
G

C G

Mario da' un colpo di straccio al banco del bar


G
C G
Mario da' un colpo di straccio al banco del bar
C7+
C
G
Mario da' un colpo di straccio al banco del bar
Solo:
e:-7-h10--7-h10--7-h10--7-h10--8-7-5-B:-----------------------------------G:-----------------------------------D:-----------------------------------A:-----------------------------------E:------------------------------------

(x2)

e:----5-\8-7-5\10----5---\12-/10----B:-5-3-----------5-3----------------G:----------------------------------D:----------------------------------A:----------------------------------E:----------------------------------[Altra versione da Andrea Zanovello: piu' corretta


e anche piu' facile da suonare, salvo forse la
mancanza di alcuni slide e l'ultima nota che secondo
me e' uno slide e non un bend. Come sempre siete voi
i giudici]
e:---10-10---10---10---10--8-7-------B:-8-------8----8----8----------10-8-G:-----------------------------------D:-----------------------------------A:-----------------------------------E:------------------------------------

(x2)

e:----------8-7-----10----------10b12r10---B:-----10-------10----------10-------------G:-9-7------------------9-7----------------D:-----------------------------------------A:-----------------------------------------E:-----------------------------------------In quattro stanno sfasciando il bigliardino


fra lui e loro fanno un po' troppo casino
si alza il grosso che dice: *Muti!* e poi tira via le palline
Il cavaliere torna dalla cavalcata
saluta Mario che chiede beh, com'e' andata
lui con le dita fa un numero esagerato proprio impossibile
Dice: *Dammene una e segnamela*
Mario sputa e tira fuori i conti del bar
Mario impreca e tira fuori i conti del bar
Mario sbuffa e tira fuori i conti del bar
Il gatto segna il territorio a suo modo
che sia ben chiaro a qualsiasi altro felino
a meno che sia un bestione violento ed assassino

Si sente un tuono ma e' solo rombo che passa


lo stereo a balla cento watt buoni per cassa
il grosso gli urla dove andare e poi gli fa anche la mossa
Tanto rombo domani ripassera'
Mario manda tutti a nanna e poi chiude il bar
Mario manda tutti a nanna e poi chiude il bar
Mario manda tutti a nanna e poi chiude il bar
+-+-+-+-+-+-+-+-+-+-+-+-+-+-+-+-+-+-+-+-+-+-+-+-+-+-+-+-+-+-+-+-+~~~~~~~~~~~~~~~~~~~~~~~~~~~
MARLON BRANDO E' SEMPRE LUI
~~~~~~~~~~~~~~~~~~~~~~~~~~~
D4 x00233
Am4/7 002033
consiglio anche di usare:
G 320033
C 032013
Intro: G C D4 D
TAB opera di Red
e|---3-3---3-3---3-|---3-3---3-3---3-|
B|-3-----3-----3---|-1-----1-----1---|
G|-----------------|-----------------|
D|-----------------|-----------------|
A|-----------------|-----------------|
E|-----------------|-----------------|
e|---3-3---2-2---3-|-3---2-2---3---2-|
B|-3-----3-----3---|---3-----3---3---|
G|-----------------|-----------------|
D|-----------------|-----------------|
A|-----------------|-----------------|
E|-----------------|-----------------|
TAB di Alessandro Marini
[Intro]
TAB prima chitarra di: Binda Pietro
Prima chitarra:
e:-----7---5-5---8---7-7---5--5-7--3--5-----|
B:------------------------------------------|
G:------------------------------------------| X2
D:------------------------------------------|
A:------------------------------------------|
E:------------------------------------------|
Seconda chitarra:
SOL
DO
RE
. .
e:-3-----3-3---3-3-|-3-----3-3---3-3-|-3--3-2--2-3--3-|-2--2---3.-2.|
B:-3-----3-3---3-3-|-1-----1-1---1-1-|-3--3-3--3-3--3-|-3--3---3--3-|
G:-0---------------|-0---------------|----------------|-------------| X 2
D:-----------------|-----------------|----------------|-------------|
A:-----------------|-----------------|----------------|-------------|

E:-----------------|-----------------|----------------|-------------|
1 . 2 . 3 . 4 .
1 . 2 . 3 . 4 .
1 . 2 . 3 . 4 . 1 . 2 3 4
in effetti occorrerebbe giocherellare un po'
fra D e D4, fate qualche tentativo
vvvvvvvvvvvv
G
C
D
Lui aveva un vecchio maggiolone cabriolet
G
C
Am4/7
sfatto ma piaceva tanto a lei
G
C
D
Arrivo' e col clacson disse: "Sto aspettando te"
G
C
D
Lei scese profumata piu' che mai
Fecero due conti in tasca e videro che
non ci si ballava neanche un po'
lei gli disse: "Questa sera voglio far l'amore,
prima pero' portami a sognare".
D

Em
C
D
Un fascio di luce va dal proiettore
Bm
C
D D D D
per un sogno da duemila li-i-i-ire
G
C
D
porti addosso qualche segno provero' a tirarteli via
G
C
D
posso solo questo sogno scusa per la mia fantasia
Em
Bm
giu' in platea sedie di legno
C
Am
D
gole secche per la sete d'eroi
D
G
E Marlon Brando e' sempre lui
C
D4 D
ooh lui, ooh lui
G
Marlon Brando e' sempre lui
C
D4 D
ooh lui, ooh lui
Un po' piu' avanti con negli occhi ancora tanto film
Terry Malloy infine, vince lui
Lui le dice come vedi siamo sempre qui
e non e' obbligatorio essere eroi
Un fascio di luce va dal maggiolone
carrellata per il lieto fi-i-i-i-ine
porti addosso qualche segno provero' a tirarteli via
posso solo questo sogno scusa per la mia fantasia
giu' in platea sedie di legno
gole secche per la sete d'eroi
D
G
E Marlon Brando e' sempre lui
C
D4 D
ooh lui, ooh lui

G
Marlon Brando e' sempre lui
C
D4 D
ooh lui, ooh lui
Solo: G C D4 D (x3)
G
C
D4
Marlon Brando e' sempre
G
C
D4
Marlon Brando e' sempre

D
lui
D
lui

Finale: G C D4 D
(finale in G)
[Outro fornita da Alessandro Marini]
[Strum/Outro](tastiera arr. per chit.)
SOL
DO
RE
/SI /SOL
RE
/SI /SOL
[ /
/ /
/ /
| /
/ /
/ /
| / / / /
/
| / / / /
/ ]
1 . 2 . 3 . 4 .
1 . 2 . 3 . 4 .
1 . 2 . 3 . 4 .
1 . 2 . 3 . 4 .
+-+-+-+-+-+-+-+-+-+-+-+-+-+-+-+-+-+-+-+-+-+-+-+-+-+-+-+-+-+-+-+-+~~~~~~~~~~~~~~~~~~~~
SOGNI DI ROCK'N'ROLL
~~~~~~~~~~~~~~~~~~~~
C7+ 032000
(Ritmo terzinato)
G
C
D
Siamo qui gia' le quattro e siamo qui
C
G
C
D
C
finestrini socchiusi su strade indifese dai nostri pesanti pesanti HP
G
C
D
C
G
E cosi' anche il sabato e' andato cosi' si e' bevuto ballato,
C
D
qualcuno ha imbarcato il piu' scemo le ha prese e ha una faccia cosi'
Em
Bm
C
D
C7+
Ombre dure adatte all'ora l'autoradio intanto va
G

C
D
Rythm and blues e pestiamo coi piedi di piu'
C
G
C
D C
finche' il polso cammina facciamo mattina tenendoci su coi
G
Sogni
G
Sogni
G
Sogni
G
Sogni
G
Sogni
G
Sogni
G

C
di rock'n'roll
C
di rock'n'roll
C
di rock'n'roll

Am7
e guai a chi ci sveglia

C
di rock'n'roll
C
di rock'n'roll
C
di rock'n'roll
C

Am7

Sogni di rock'n'roll

sognando il meglio

Solo: G C D C G C D C
E poi c'e' come al solito c'e' quello che
che non tiene mai l'alcool e allora ci tocca accostare
finche' ce n'e'
E ancora via a pedinare una morbida scia
una striscia invitante talmente accogliente
da perderci il fiato e che sia quel che sia
E le casse sono piene i suoni son violenti ma:
cosa c'e'?
C'e' che tanto benzina ce n'e'
uno fa il batterista l'altro il chitarrista
tu basso tastiere io voce gli idioti del playback fan
playback fan
playback fan
G
C
Sogni di rock'n'roll
G
C
Sogni di rock'n'roll
G
C
Am7
D
Sogni di rock'n'roll
e guai a chi ci sveglia
G
C
Sogni di rock'n'roll
(E
cosi'
siamo
qui siamo qui siamo)
G
C
Sogni di rock'n'roll
(qui gia' le quattro e siam qui siamo qui siamo)
G
C
Am7
Sogni di rock'n'roll
sognando
il meglio
(qui finestrini
socchiusi su strade indifese
[dai nostri pesanti pesanti HP)
Fine in G
+-+-+-+-+-+-+-+-+-+-+-+-+-+-+-+-+-+-+-+-+-+-+-+-+-+-+-+-+-+-+-+-+~~~~~~~~~~~~~~
RADIO RADIANTI
~~~~~~~~~~~~~~
Intro: Em G Bm A Em (x2)
[Grazie per la TAB a Andrea Zanovello]
--0-3-0-------------0-3-0--------0-3-0-----------0-3-0---------------3-0---------------3-0---------3-0--------------3-----------------2-0---------------------------2-0------------0--------------------2----------------------------2----------------------------------------------------------------------------------------------------------------------------------------Harm.
--0-3-0-------------0-3-0-----------------0-3-0-----------0-3-0---------------3-0---------------3-0-----5------------3-0--------------3-----------------2-0------------------5-----------------2-0------------0--------------------2--------------5----------------------2-----------------------------------------------------------------------------------------------------------------------------------------------------------

[Altra versione di Alessandro Marini]


+---+---[Intro/Riff]MIm
| 1
| 2
(2^chit)
e:-----3----------|----------------|-----3----------|--------|-----<7>---|
B:/5-------5-3----|----------------|-5-------5-3----|--------|----5------|
G:---------------4^4---2---0-------|---------------4^4~------|---4-------|
D:----------------|---------(2)2-2-|----------------|--------|-----------|
A:----------------|----------------|----------------|--------|-----------|
E:----------------|----------------|----------------|--------|-----------|
1 . 2 . 3 . 4 . 1 . 2 . 3 . 4 .
1 . 2 . 3 . 4 . 1 2 3 4 1 2 3 4
SIm
LA
MIm
e:-----3----------|-----------------|-----3----------|---------|
B:/5-------5-3----|-----------------|-5-------5-3----|---------|
G:---------------4^4----2---0-------|---------------4^4~-------|
D:----------------|----------(2)2-2-|----------------|---------|
A:----------------|-----------------|----------------|---------|
E:----------------|-----------------|----------------|---------|
1 . 2 . 3 . 4 . 1 . 2 . 3 . 4 .
1 . 2 . 3 . 4 . 1 2 3 4
Em
Come vi va io lo so gia'
siete sintonizzati qua
Bm
state pero'
A
buoni perche'
Em
forse vi do il tempo che fa
sapete che al mio tre
tutti dovrete ridere
sarete piu' belli cosi':
ridete e state in ordine
Em
Radiogommina
radioceretta
Bm
A
radioabbronzante radiogel
Em
radiocivetta
Ditemi che non siete giu'
o la mia missione non conta piu'
ho qua per voi l'ultimo mix:
cambia la vita questo qui
Radiofelici
radiocontenti
radiosorrisi e baci smack

radio radianti
scrivimi poi
per dirmi che
mi ami quanto io amo te
noi siamo qui, quando lo vuoi
ci accendi e poi ci siamo noi
Radioamici
radiopresenti
radiocisiamosolonoi
radioabbondanti
+-+-+-+-+-+-+-+-+-+-+-+-+-+-+-+-+-+-+-+-+-+-+-+-+-+-+-+-+-+-+-+-+~~~~~~~~~~~~~~~~~~~~~~~~~~~~
FREDDO CANE IN QUESTA PALUDE
~~~~~~~~~~~~~~~~~~~~~~~~~~~~
F#10m xx4224
[NdTigers: la TAB era (purtroppo) in formato DOC, percio'
ho dovuto convertirla in caratteri fixed. Spero si capisca
qualcosa]
Eccoti una versione tab della canzone di Ligabue " Freddo cane in questa
palude", anche se non e' molto fedele all' originale, secondo me e'
divertente
e orecchiabile. Naturalmente e' molto migliorabile e conto su tutti....
Grazie e ciao :-))
Freddo cane in questa palude
Ritmo blues lento, facendo suonare molto le note
Intro:
e----------------------/---------------------/----b----------------------/---------------------/----g----------------------/---------------------/----d--------------2*------/------------2*-------/----a---------4---------4--/--------4-------4----/----E----2-----------------/----2----------------/----La nota * va tenuta ancora di pi, magari vibrandola
e-----------------------------------------------b-----------------------------------------------g-----------------------------------------------d--------------2*--------------------2*---------a---------4---------4------------4---------4----E----2---------------------2--------------------Freddo
cane
in
questa palude
-----------------------------------------------------------------------------2--------+ Do#, Do , Si, come nella
canzone
----------------------------2----------------------------------2------------------------------------4---------------------------------2-------------------------------------i coccodrilli a quest' ora
cenano-o-o-o-o
Provatelo e miglioratelo, se vi va
Bologna Stefano

F#10m
Freddo cane in questa palude
i miei amici fanno scherzi idioti sai:
C#m
C
loro spengono la sera e si nascondono
B
F#10m
nei fossi per vedere come me la caverei
Freddo cane e carne cruda
i coccodrilli a quest'ora cenano
C#m
C
B
io non ho con me il fucile ma mi sento come Zagor
F#
neanche questa volta mi fregano
E7

B7
Troppo silenzio
A7
e' possibile che tutti dormano?
Qualche cosa urlero'
ANGELO DELLA NEBBIA
B9 x24422
E9 022102
Intro: F# B9 (x4)
[Nelle strofe potete fare B o B9 per me suonano piu'
o meno uguali: fate voi]
F#
Scelti da chissa' che mano
B
per esser buttati in mezzo alla nebbia
F#
con chi alla nebbia s'e' gia' rassegnato
B
F# B
ed ha spalle curve e vestiti umidi
F#
Corse finite al mattino
B
col cuore che batte in un mucchio di sabbia
F#
su fette d'asfalto dal fondo ceduto
B
F# B
due lepri ogni tanto si fermano li'
D
si fermano a urlare:
F#
siamo qui
B
F#
angeli della nebbia.
B
Gua-a-a-rdaci
F#
B
buttaci solo un po'
F#
E9

di colore
B
A-a-a-angelo
D
Ci puoi sentire o no?
E
Sei li'?
Sei li'?
F#
B9
Sei li'?
F#
C'e' un piatto pieno di vita
B
puntata in scommesse gia' perse in partenza
F#
ma prima di tutto van tutte giocate
B
che l'allibratore si diverta un po'
F#
B
Senti proprio tutto bene? o no???
F#
Rumori e corpi attutiti
B
e gocce che provano a bagnarci dentro
F#
due lepri si danno una bella scrollata
B
e al prossimo campo si fermano un po'
D
si fermano a urlare:
F#
siamo qui
B
F#
angeli della nebbia.
B
Gua-a-a-rdaci
F#
B
buttaci solo un po'
F#
di colore
B
A-a-a-angelo
E9

D
Ci puoi sentire o no?
E
Sei li'?
Sei li'?
F#
B9
Sei li'!!
+-+-+-+-+-+-+-+-+-+-+-+-+-+-+-+-+-+-+-+-+-+-+-+-+-+-+-+-+-+-+-+-+~~~~~~~~~~~~~~~~
FIGLIO D'UN CANE
~~~~~~~~~~~~~~~~

Intro: A E Bm D (x2)
(molto deciso)
[TAB corretta da Andrea Zanovello]
e:-12-12-12-10-10-10--9--9-B:-10-10-10-10-10-10-10-10-G:--9--9--9--9--9--9--9--9-D:-------------------------- (x3)
A:-------------------------E:-------------------------e:-10-10--9--9--9--9--9--9-B:-10-10-10-10-10-10-12-12-G:--9--9--9--9--9--9--9--9-D:-------------------------A:-------------------------E:-------------------------A
E
Abituato a morso e fuga
Bm
D
mi sporco di fango catrame e di ruggine
A
E
Bm
L'istinto mi spinge a un sole che mi asciuga
D
a un metro dalla grandine
F#m
C#m
D
E fra un po' si torna in calore e lo sai
che per qualcuno e' comodo.
F#m
C#m
D (lasciar suonare)
C'e' una cuccia un osso e un padrone per noi.
Rit.
Identita':
A
figlio d'un cane
E
figlio d'un cane
Bm
figlio di cinque minuti
D
Identita':
A
figlio d'un cane
E
figlio d'un cane
Bm
figlio d'un equivoco
D
Identita':
A
figlio d'un cane
E
figlio d'un cane
Bm
figlio d'amplessi rubati

D
Identita':
A
figlio d'un cane
E
figlio d'un cane
Bm
figlio di un preservativo rotto
Solo: A E Bm D (x2)
E allora ululo ed alzo il bicchiere
fra sassi, scarponi e bestemmie che tirano.
Ed ululare e' un sollievo
e un piacere
che almeno do fastidio un po'
E ogni tanto ciotole piene che poi
non brontoli lo stomaco
briciole ed avanzi di ieri per noi
Rit.
[Solo] Fine in A
==================================================================
ALBUM LAMBRUSCO COLTELLI ROSE & POP-CORN (1991)
==================================================================
Words and music: Ligabue
Trascrizioni: Davide Pari <tigers@europe.com>
eccetto: _'Libera nos a malo',
opera di: Marco Buccione <magila@cmns.mnegri.it>
_L'intro di *Salviamoci la pelle*, alcune TAB di
*Urlando contro il cielo* opera di RED
Testi prelevati da: www.lyrics.ch (grazie a chi li ha postati!)
con piccole correzioni qua e la' fatte da me
Canzoni incluse: 1.
2.
3.
4.
5.
6.
7.
8.
9.
10.
LIVE)
11.

SALVIAMOCI LA PELLE (CRD & TAB)


LAMBRUSCO & POP-CORN (CRD)
CAMERA CON VISTA SUL DESERTO (CRD)
ANIME IN PLEXIGLAS (CRD & TAB)
CON QUESTE FACCE QUI (CRD)
SARA' UN BEL SOUVENIR (CRD)
INTRO (TAB)
LIBERA NOS A MALO (CRD & TAB)
TI CHIAMERO' SAM (SE SUONI BENE) (CRD)
URLANDO CONTRO IL CIELO (CRD & TAB anche versioni
REGALAMI IL TUO SOGNO (CRD)

NOTA: Trascrivere, mettere insieme e portare su Internet queste


canzoni mi e' costato tempo e fatica: se usate tutto o parte di
questo canzoniere, non dimenticate di citare il mio nome. Grazie.
:)
Contribuite ad aumentare il numero di canzoni italiane disponibili

sulla rete e su OLGA!!!


Visitate e contribuite al newsgroup it.arti.musica.spartiti
+-+-+-+-+-+-+-+-+-+-+-+-+-+-+-+-+-+-+-+-+-+-+-+-+-+-+-+-+-+-+-+-+~~~~~~~~~~~~~~~~~~~
SALVIAMOCI LA PELLE
~~~~~~~~~~~~~~~~~~~
Capotasto sul I tasto
Nota: Mentre gli accordi sono indicati rispetto al capotasto
(quindi dove ho scritto MI va suonato un MI anche se in realta'
avrei dovuto scrivere FA), la tablatura e' scritta come se il
capotasto non ci fosse, per non sballare i riferimenti; in ogni
caso anch'essa e' nella stessa tonalita' del CD)
A9: 002200
D9: X00230
Intro:
Chitarra elettrica distorta
TAB opera di Red
e|-8-8-8-6---5---6-|---5-----------|
B|-6-6-6-6-6-6-6-6-|-6-6---8---6---|
G|-----------------|-----5-5-5-5-5-|
D|-----------------|---------------|
A|-----------------|---------------|
E|-----------------|---------------|
e|-8-8-8-6---5---6-|---5-----|
B|-6-6-6-6-6-6-6-6-|-6-6-6-8-|
G|-----------------|-------5-|
D|-----------------|---------|
A|-----------------|---------|
E|-----------------|---------|
e|-8-8-8-6---5---6-|---5-----------|
B|-6-6-6-6-6-6-6-6-|-6-6-6-6-8-6-8-|
G|-----------------|-----5-5-5-5-6-|
D|-----------------|---------------|
A|-----------------|---------------|
E|-----------------|---------------|
^
e|-8-x-x-8-x-x-8-x-|
|
B|-8-x-x-8-x-x-8-x-|
|
G|-----------------|
|
D|-----------------|
|
A|-----------------|
|
E|-----------------|
|
|
[Secondo me questa battuta va pero' corretta cosi';
fatemi sapere cosa ne pensate:]
|---5-------5---|
|-6-6-6-6-8-6-8-|
|-----5-5-5---6-|
|---------------|

|---------------|
|---------------|
E
Lui e lei hanno quel destino
A9
D9
scritto da altri, altre vite fa.
E
E' l'unica cosa che hanno, o, almeno,
A9
D9
e' l'unica cosa in eredita'.
E
Lei qualche volta gli dice: *Ti amo,
A9
D9
ma non puo' essere tutto qua,
E
qua non c'e' niente per nessuno:
A9
D9
[Fill] E
andiamo via, andiamo, dai, andiamo, va*.

A9 D9 E A9 D9

[TAB di Alessandro Marini]


[Fill]MI
LA
RE
e:------------|-------------------|-------------|-11-11-10----------|
B:-10~--------|-11-11-10--11--10--|-11----------|-----------13--11--|
G:------------|-------------------|-------------|-------------------|
D:------------|-------------------|-------------|-------------------|
A:------------|-------------------|-------------|-------------------|
E:------------|-------------------|-------------|-------------------|
1 2 3 4
1 . 2 . 3 . 4 .
1 2 3 4
1 . 2 . 3 . 4 .
E
Lei ha la foto di sua madre,
A9
D9
un giorno o l'altro la guardera'
E
che cosi' non vuole diventare,
A9
D9
che cosi', giura, mai non sara'.
E
Lui, la foto di suo padre l'ha dentro,
A9
D9
impressa a fuoco nell'anima,
E
impressa ad alcool, botte e insulti:
A9
D9
*andiamo via, andiamo, dai, andiamo, va*.
B
E A9
Salviamoci la pelle
D9
che, bella o brutta, e' quella li':
B
rendiamola unica.
E A9
Salviamoci la pelle
D9
tu tieni botta e dimmi di si'
B

A9

D9 B

che e' quello che co- e' quello che co- conta la la la la
(Come sopra)
Lei ha lasciato una letterina:
ci ha messo un anno a scriverla.
Lui ha lasciato sul comodino
due lire che suo padre berra'.
Bevono gia' molto i loro amici:
scappano via soltanto cosi',
solo che la mattina dopo son sempre li',
son sempre li', son sempre li'.
Salviamoci la pelle
che, bella o brutta, e' quella li':
rendiamola unica.
Salviamoci la pelle!
Tu tienti stretta e dimmi di si'
che e' quello che co- e' quello che co- conta la la la la
E
*Verso che cosa andiamo?* lei chiede.
A9
Lui dice *Beh, questo non si sa,
D9
F#m7
pero' sappiamo bene cosa non c'era qua, non c'era qua, non c'era*.
E
Poi lei si volta per un momento,
A9
guarda quel posto ed accenna un ciao.
D9
Lui a quel posto gli sputa contro
F#m7
e spinge sul gas.
E
Salviamoci la, salviamoci la
A9
Salviamoci la, salviamoci la
D9
Salviamoci la, salviamoci la
che e' quello che ci resta.
E
Salviamoci la, salviamoci la
A9
Salviamoci la, salviamoci la
D9
Salviamoci la, salviamoci la

pelle,
pelle,
B
pelle
pelle,
pelle,
B
pelle

che e' quello che ci resta.


Fine: E A9 D9 B E
+-+-+-+-+-+-+-+-+-+-+-+-+-+-+-+-+-+-+-+-+-+-+-+-+-+-+-+-+-+-+-+-+~~~~~~~~~~~~~~~~~~~~
LAMBRUSCO & POP-CORN
~~~~~~~~~~~~~~~~~~~~
A9: 002200

Intro (chitarra acustica):


(Ritmo molto deciso)
[Intro/Riff] [Da Alessandro Marini]
LA
LAsus2
RE
LA
LAsus2
RE
[1 . 2 . 3 . 4 . |1 . 2 . 3 . 4 . |1 . 2 . 3 . 4 . |1 . 2 . 3 . 4 . |
FA#m
FA#m4
RE
SIm
SOL
[1 . 2 . 3 . 4 . |1 . 2 . 3 . 4 . |1 . 2 . 3 . 4 . |1 . 2 . 3 . 4 . |
A A9 D

A A9 D

F#m A9 D

Bm

A
A9
D
Vieni qua che ti faccio vedere
A
A9
D
dov'e' il nostro pezzo di mondo.
F#m
D
Portati dietro un sorriso e un sospiro:
Bm
G
li userai.
(Come sopra)
Vieni qua che potrai galleggiare
a due dita soltanto dal fondo
ma, se ti manchera' l'aria, ti affitto
l'America.
G
A
A9
Lambrusco & pop corn
D
A
A9
non e' cosi' facile
D
F#m
A9
D
perche' prima e dopo il sogno c'e'
Bm
G
la vita da vivere, vivere.
A
A9
Lambrusco & pop corn
D
A
A9
e via sopravvivere
D
F#m
A9
D
andata e ritorno classe tre
Bm
G
ma almeno e' possibile
Vieni qua:
c'e' un bicchiere di vigna
e un vassoio di mais gia' scoppiato.
Ballaci su questa terra:
faremo un po' piovere.
Vieni qua che c'e' questo drive in
che ha per schermo un gran cielo gonfiato.
Macchina o no c'e' un bel pezzo d'asfalto
da correre.
G
A
A9
Lambrusco & pop corn
D
A
A9
non e' cosi' facile

D
F#m
A9
D
perche' prima e dopo il sogno c'e'
Bm
G
la vita da vivere, vivere.
A
A9
Lambrusco & pop corn
D
A
A9
e via sopravvivere
D
F#m
A9
D
andata e ritorno classe tre
Bm
G
ma almeno e' possibile -sibile
D
che posto ce n'e', posto ce n'e',
D
G
dico posto ce n'e',
D
posto ce n'e', posto ce n'e',
A A9 D A A9 D F#m A9 D
posto ce n'e'
A
A9
D
La la la la la la la
A
A9
D
la la la la la la la
F#m
A9
D
la la la la la la la
Bm
G
gira, gira, gira, gira, gira, gira,
A
tanto torni qua.
A9
D
la la la la la la
A
A9
D
la la la la la la la
F#m
A9
D
la la la la la la la
Bm
G
gira, gira, gira, gira, gira, gira,
(lambrusco
A
tanto torni qua.
e popCorn)
A9
D
la la la la la la
(non e' cosi' facile)
A
A9
D
la la la la la la la
(lambrusco e popF#m
A9
D
la la la la la la la
corn)
(e via sopravBm
G
gira, gira, gira, gira, gira, gira,
vivere vivere
(lambrusco
A
tanto torni qua.
e popCorn)

A9
D
la la la la la la
(non e' cosi' facile)
A
A9
D
la la la la la la la
(lambrusco e popF#m
A9
D
la la la la la la la
corn)
(e via sopravBm
G
gira, gira, gira, gira, gira, gira,
vivere
vivere)
A
tanto torni qua.
+-+-+-+-+-+-+-+-+-+-+-+-+-+-+-+-+-+-+-+-+-+-+-+-+-+-+-+-+-+-+-+-+~~~~~~~~~~~~~~~~~~~~~~~~~~~~
CAMERA CON VISTA SUL DESERTO
~~~~~~~~~~~~~~~~~~~~~~~~~~~~
Em9: 022002
C9: 032030
D4: x00233
[Ecco il primo contributo:
Da: Daniele Ponteggia <dponteg@tin.it>
Ciao,
in "Le scarpe nel deserto" prova a cambiare il Bm7 con un B7, dovrebbe
andare meglio.
Mi pare che al B7 ci arriva con un piccolo arpeggio tipo:
B7
-----2------0------2------1--0-1-2--------Daniele]
Em9
Le scarpe nel deserto
pesan sempre un po' di piu'
C
di sabbia, terra e polvere
che non si staccan piu'.
D
Un fiore ogni tre vite
ed un fiore che, poi,
Bm7
sara' robusto ed alto,
C
si, ma profumato mai.

Em9
Le bestie nel deserto
hanno cuori lenti che,
C9
che segnano la danza
per le nuvole.
D4
Il sangue resta freddo
purche' il sole resti li',
Bm7
ma due o tre piogge servono
C
per occhi umidi.
Em9
A meno che
faccia un poco d'ombra tu.
C7
A meno che
il sole non mi accechi piu'.
D
Bm7
C
A meno che butti via le bussole,
Em9
bruci le mie bussole.
Il cielo sul deserto
chiama acqua pure lui:
snobbato dagli angeli,
volato da avvoltoi
e torbido di spiriti
che spesso giocano,
in sella al vento fischiano
e poi ululano.
A meno che
faccia un poco d'ombra tu.
A meno che
il sole non mi accechi piu'.
A meno che butti via le bussole,
bruci le mie bussole.
+-+-+-+-+-+-+-+-+-+-+-+-+-+-+-+-+-+-+-+-+-+-+-+-+-+-+-+-+-+-+-+-+~~~~~~~~~~~~~~~~~~
ANIME IN PLEXIGLAS
~~~~~~~~~~~~~~~~~~
Intro: G D Em C D
(Pianoforte arr. per chitarra)
e:-3-2-3--2-3-2-3-2-3---3-2-3--2-3-2-3-2---3-2---B:---------------------------------------3-----3-G:-----------------------------------------------D:-----------------------------------------------A:-----------------------------------------------E:-----------------------------------------------G
D
Am
C
Prende quota il ritmo della notte

G
D
Am C
fra tamburi e canti di guru
Em
D
G
e sotto, sotto, sotto, sotto, sotto, sotto
Am7
Em
c'e' quel movimento clandestino
D
Am7
di cantine blues.
G
D
Am
C
Una volta, qui c'era il Bar Mario:
G
D
Am C
l'han tirato giu' tanti anni fa
Em
D
e i vecchi, i vecchi, i vecchi,
G
i vecchi, i vecchi, i vecchi,
Am7
Em
sono ancora li' che dicono
D
Am7
che senza non si fa oooh.
Bm
C
D
E, su, il controllo sembra un tempio ooh,
Bm
C
Am7
non sanno che siamo quaggiu' oooh.
Bm
C
D
Il plexiglas sara' l'esempio e noi rischiamo
molto, ma, qua proprio non se ne puo' piu'.
^
L--- sul 'ma' stoppare le corde
G
Le anime in plexiglas
D
stanno ballando un tango.
Em
Le anime in plexiglas
C
D
stan dimostrando come si fa uno show.
G
Le anime in plexiglas
D
stan trasudando fango.
Em
Le anime in plexiglas
C
stanno insegnando:
D
C
D
C
sgarrare non si
puo', sgarrare non si
puo',
D
G
D Em C D <---- come l'intro
sgarrare non si puo'.
G
D
Am
C
Camminando nel condotto sette
G
D
Am
C
si arriva nella New Carboneria:
Em
D
G
e' qua, e' qua, e' qua, e' qua, e' qua, e' qua
Am7

che si puo' far l'amore


Em
D
Am7
certi che la ronda non ci sia.
G
D
Am
C
E poi c'e' il capo che ci riempie l'aria
G
D
Am
C
con la Gibson che ha rubato lui
Em
D
e sopra, sopra, sopra,
G
sopra, sopra, sopra
Am7
Em
vanno avanti con lo show
D
Am7
che e' destinato pure a noi ooh.
Bm
C
D
E su, il controllo, sono tranquilli ooh,
Bm
C
Am7
che replicanti non ce n'e' ooh.
Bm
C
D
I vigilantes sono svegli:
e' dura stare al mondo nel 2123.
^
L-- Anche qui stoppare le corde
G
Le anime in plexiglas
D
stanno ballando un tango.
Em
Le anime in plexiglas
C
D
stan dimostrando come si fa uno show.
G
Le anime in plexiglas
D
stan trasudando fango.
Em
Le anime in plexiglas
C
stanno insegnando:
D
C
D
C
sgarrare non si
puo', sgarrare non si
puo',
D
G
D Em C D <---- come l'intro
sgarrare non si puo'.
G
Le anime in plexiglas
D
stanno ballando un tango.
Em
Le anime in plexiglas
C
D
stan dimostrando come si fa uno show.
G
Le anime in plexiglas
D
stan trasudando fango.

Em
Le anime in plexiglas
C
stanno insegnando:
D
sgarrare non si puo'.
A
Le anime in plexiglas
E
stanno ballando un tango.
F#m
Le anime in plexiglas
D
E
stan dimostrando come si fa uno show.
A
Le anime in plexiglas
E
stan trasudando fango.
F#m
Le anime in plexiglas
D
stanno insegnando:
E
A
E F#m D E A E F#m E D A
sgarrare non si puo'.
+-+-+-+-+-+-+-+-+-+-+-+-+-+-+-+-+-+-+-+-+-+-+-+-+-+-+-+-+-+-+-+-+~~~~~~~~~~~~~~~~~~~~
CON QUESTE FACCE QUI
~~~~~~~~~~~~~~~~~~~~
CRD di Tigers con piccole correzioni di MAURI-LIGA
Intro: A A9 D
A
A9
Le carte sono date
D
e tu hai mano quel che hai.
A
A9
Vien voglia di bluffare,
D
ma non la berranno mai,
A A9 D
A A9
D
per cui oh!... va bene anche cosi'
A A9 D
G
D
A A9 D A A9 D
per cui oh!... va bene anche per forza cosi'.
Puo' darsi tu non sia
come ti volevano.
Se ti consola, come te,
ci siamo in un bel po',
percio' oh!... tu sei quello li'
percio' oh!... percio' noi siamo questi qui.
Con queste facce qui
con queste facce qui
contenti oppure no
siam questi qui percio'...

fra pregi e limiti


e queste facce qui.
Puo' darsi non sia tutto
come lo sognavi tu.
E, forse, sei rimasta senza principini blu
pero' oh!... le cose stanno cosi'
pero' oh!... se ti basta noi siamo qui.
Con queste facce qui
con queste facce qui
fra favola e realta'
noi siamo l'ultima:
staremo scomodi
ma con queste facce qui.
[Riff 2] A

G D

TAB di Alessandro Marini]


[Riff 2]LA
LA
e:-----------------|----------------|-----------------|-----------------|
B:-2-3-2-3-5---2-3-|-2-3-5----------|-2-3-2-3-5---2-3-|-2-3-5-----------|
G:-----------------|----------------|-----------------|-----------------|
D:-----------------|----------------|-----------------|-----------------|
A:-----------------|----------------|-----------------|-----------------|
E:-----------------|----------------|-----------------|-----------------|
1 . 2 . 3 . 4 .
1 . 2 . 3 . 4 . 1 . 2 . 3 . 4 .
1 . 2 . 3 . 4 .
LA
RE
e:-----------------|----------------|/3-------2-------|-----------------|
B:-2-3-2-3-5---2-3-|-2-3-5----------|-----------------|/5-------2-------|
G:-----------------|----------------|-----------------|-----------------|
D:-----------------|----------------|-----------------|-----------------|
A:-----------------|----------------|-----------------|-----------------|
E:-----------------|----------------|-----------------|-----------------|
1 . 2 . 3 . 4 .
1 . 2 . 3 . 4 . 1 . 2 . 3 . 4 .
1 . 2 . 3 . 4 .
G
A
D
Facce ognuna con i propri segni
A
e i propri debiti.
G
Em
D
Facce che son facce che son facce davvero.
G
A
D
Facce ognuna con i propri specchi,
A
ognuna unica
G
Em
D
facce che son facce, che son facce cosi'.
Le carte sono date
e ognuno ha messo il proprio cip.
E non si puo' bluffare mai
con queste facce qui,
per cui oh!... va bene anche cosi'
per cui oh!... va bene anche per forza cosi'.

Con queste facce qui


con queste facce qui
che piacciano o no
o che disturbino,
son nostre e son cosi':
son queste facce qui.
[Riff finale]
[e' uguale al riff 2, ma questa e' la mia trascrizione]
e:---------0--3-2-0---B:-2h3p2h3----------3-G:------------ (x4) poi: ---------D:--------------------A:--------------------E:--------------------|__________________________________|
Ripete tutto e finisce con:
e:-3-2-0---B:-------2-G:---------D:---------A:---------E:---------+-+-+-+-+-+-+-+-+-+-+-+-+-+-+-+-+-+-+-+-+-+-+-+-+-+-+-+-+-+-+-+-+~~~~~~~~~~~~~~~~~~~~~
SARA' UN BEL SOUVENIR
~~~~~~~~~~~~~~~~~~~~~
Posizioni consigliate:
Bm: 224432
G: 355433 (intro)
320033 (strofe)
D: x00232
A: 002220
PRE-INTRO (da *Amarcord*)
(sperando di avere imbroccato la tonalita')
Fischiettato:
e:-------------------------------------B:-------------------------------------G:-4---2---0---------------------------D:---4---2----5-4-3-2-1--1-3-0---------A:-----------------------------0-3-----E:---------------------------------4-5-Di seguito parte subito:
Intro (chitarra acustica):
Bm G D A (x2)
[Intro alternativa di Alessandro Marini]
[cambia il secondo Bm in F#m. Potrebbe anche essere... :) ]
[Intro/Fill] (Fischiettio)
SIm
SOL
RE
LA
FA#m
//
/ /
/ / / / /// / //

SOL
//

RE
//

LA (arp)
//
x2

[1 . 2 . 3 . 4 . |1 . 2 . 3 . 4 . |1 . 2 . 3 . 4 . |1 . 2 . 3 . 4 . ]
Poi c'e' l'arpeggio sulle ultime tre corde del LA:
e:-0-----B:---2---G:-----2-D:-------A:-------E:-------Poi ripete ancora:
Bm G D A (x2)
La parte sotto le strofe viene da Donald <donald@excalhq.it>:
[molto bella soprattutto per i bassi dopo i LA la seconda volta]
G
A
Bm
F#m
e|--3--3-------0--0-------2-2-------2--2---B|--3-----3----2-----2----3---3h4---2-----2G|--0------0---2------2---4------5--2------2
D|--0----------2----------4---------4------A|--2----------0----------3---------4------E|--3-------------------------------2------G
A
F#m
G
A
e|--3--3-------0--0-------------2--2------3---0-B|--3-----3----2-----2----------2-----2---3---2-G|--0------0---2------(2)-------2------2--0---2-D|--0----------2----------------4---------0---2A|--2----------0----------------4---------2---0E|--3----------------------5-4--2---------3----G
A
Bm
F#m
e|--3--3-------0--0-------2-2-------2--2---B|--3-----3----2-----2----3---3h4---2-----2G|--0------0---2------2---4------5--2------2
D|--0----------2----------4---------4------A|--2----------0----------3---------4------E|--3-------------------------------2------G
A
Em
G
A
e|--3--3-------0--0-------------0--0------3---0-B|--3-----3----2-----2----------0-----0---3---2-G|--0------0---2------(2)-------0------0--0---2-D|--0----------2----------------2---------0---2A|--2----------0----------------2---------2---0E|--3----------------------3-2--0---------3----Io la suono cos fatemi sapere che ne pensate!(correzioni ben accette!)
Donald
==============================================
I.C.Q.:34264882
"we haven't much time"
ancora 103 giorni a EP1
==============================================

G
Non e' proprio liscia,
A
non va cosi' liscia
Bm
F#m
per noi che chiediamo che or'e',
G
e c'e' un'altra strada
A
e c'e' un'altra luna
F#m7
e un altro bar che chiude
G
A
e un'altra voglia di fortuna.
G
E allora, bambina,
A
c'e' poco da dire
Bm
F#m
se non che mi troverai qua:
G
A
cambiato per niente, ma neanche scontento,
Em
G
A
fottuto dal dovere pensare di dover avere.
Bm
A
Ma ci sara' un souvenir
F#m
G
A
che ci riportera' solo certi momenti.
Bm
A
E sara' un bel souvenir
F#m
G
A
una fotografia, una canzone fra i denti.
Bm
A
Ma ci sara' un souvenir
F#m
G
A
che ci commuovera' fino a farci contenti.
Bm
A
Tieniti il tuo souvenir
F#m
G
A
da mettere via poi ridicendoti *avanti*.
Come l'intro: Bm G D A (x2)
G
Se tutto va in fretta
A
saro' una saetta
Bm
F#m
e tu lo sarai insieme a me
G
A
peccato soltanto che ci sara' il tempo
Em
in cui dovremo dire:
G
A
*Adesso e' giusto riposare*.
Bm

Ma ci sara' un souvenir
F#m
G
A
che ci riportera' solo certi momenti.
Bm
A
E sara' un bel souvenir
F#m
G
A
una fotografia, una canzone fra i denti.
Bm
A
F#m
Un souvenir formato Tir
G
A
a centoventi all'ora
Bm
A
F#m
arriva li' spazzando via
G
A
qualsiasi altra cosa.
Solo: G A Bm F#m G A Em G A
G <----'Martellato'
Bm
Sara' un bel souvenir
A
il nostro souvenir
F#m
G
A
sara' di quasi tutti i colori.
Bm
Sara' un bel souvenir,
A
sara' lo specchio di
F#m
G
A
riflessi chiari e riflessi scuri.
Bm
A
F#m G A
La la la la la la la la
(x3)
Bm
A
La la la la la la la la
F#m
la la la la la la la la
G
A
la la la la la
Bm
A
F#m G A Bm <---Rallentando
La la la la la la la la
+-+-+-+-+-+-+-+-+-+-+-+-+-+-+-+-+-+-+-+-+-+-+-+-+-+-+-+-+-+-+-+-+~~~~~~~~~~~~~~~~~
LIBERA NOS A MALO
~~~~~~~~~~~~~~~~~
TAB by Marco "Gibson" Marengo
[L'ho corretta appena appena: secondo me alla fine
ci va il LA sul 12 come ho scritto e non sul 13 come
avevo ricevuto]
Il vecchio chitarrista la suonava cos:
e:-------------------------------------------------A:------------------13-13vv-12----------12---------G:-14-14vv---------------------14-12-14----14vvvv---

B:---------12-12vv---------------------------------E:-------------------------------------------------D:--------------------------------------------------

poi

---------------------------------------13b15-vvvv--14-14--------------------------12-12----------------------------------------------------------------

[altra versione]
Penso che cos sia pi facile, poi per la tonalita', basta
abbassarla.......
e----------------------------------------------------------B----------------------------------------------------------G--------------------------0---0---------------------------D------2---2------------------------4---2---0---2---4---2--A-----------------0---0------------------------------------E----------------------------------------------------------Stefano Bologna

bobo@netbusiness.it

[Per i non anglofoni ho inserito fra parentesi quadre le


traduzioni dei commenti di Marco alla canzone. Spero sia gradito
:) ]
Guitar effects used: nothing special, only a serious distorsion
and quite a lot reverb
[effetti usati: niente di speciale, solo mooolta distorsione e
parecchio riverbero]
Song speed: about 145 bpm
Notes on the song: I transcribed the arrangement of the studio
version; it can sound different from the more recent live version
(from the album *Su e gi da un palco* - 1997).
[nota:l'arrangiamento trascritto e' quello della versione in studio;
puo' suonare diverso rispetto al piu' recente live 'Su e giu' da
un palco']
I know that there is already a version of this song, but I think
that my transcription could be added to that one because: - I
added significant corrections to the lead guitar parts (solo and
riffs) - I rewrote (I think more exactly) the chords succession I transcribed in full the lyrics, which aren't present in Enrico
Ruggeri's version - I admit that I took several things from Enrico
Ruggeri's version and I'm ready to acknowledge the fact.
Happy new year!
Marco Buccione
magila@cmns.mnegri.it
Riff:
E------------8-|-8--7---------7----|-----------8-|-8*--7---------7-12-|
B--10-10-------|------10-8-10---10-|-10-10-------|-------10-8-10------|
G--------7-7---|-------------------|-------7-7---|--------------------|
D--------------|-------------------|-------------|--------------------|
A--------------|-------------------|-------------|--------------------|

E--------------|-------------------|-------------|--------------------|
D
Am
G
C (Repeat this 7x, 7th time
bend down the * note by trem bar and don't play the remaining
stuff) [ripetere x7, la settima volta tenere la nota segnata con *
azionando la leva del tremolo tralasciando la parte che segue
[NOTA: in questa canzone gli accordi sono scritti sotto alle
parole]
1st verse:
Oh, mama, mama, che cosa ho fatto?
D
Am
Son scivolato ancora dentro un letto
G
C
F C
Ma, mama, mama, che devo dire?
D
Am
O era amore o somigliava bene
G
C
F C
Oh, mama,
D
Am
m'hanno creato tutto sbagliato
G
C
Oh, mama,
D
Am
pero' non riesco a capire il mio peccato
G
A
(w/fig.1)
Libera nos a malo
D
Am
Per il mio male qual e'?
G
C
Libera piano piano:
D
Am
forse scordiamo com'e'
G
F
Libera nos a malo
D
Am
toglici pure il perche'
G
C (w\end fig.1)
Libera libera libe, libera libera libera, libera
D
Am
G
F
Fig. 1:
E-----------|--------|--------|-------------|
B-----------|--------|--------|----6/5--6/5-|
G--7--7-6---|--------|--------|-5-----------|
D--7------7-|-7------|-5------|-5-----------|
A--5--------|-7--3-5-|-5------|-3-----------|
E-----------|-5------|-3--1-3-|-------------|
D
Am
G
C
E-----------|--------|--------|------------------|
B-----------|--------|--------|------------------|
G--7--7-6---|--------|--------|------------------|
D--7------7-|-7------|-5------|-3-3-3-3-3-3-3-3--|
A--5--------|-7--3-5-|-5------|-3-3-3-3-3-3-3-3--|
E-----------|-5------|-3--1-3-|-1-1-1-1-1-1-1-1--|

Am

Play 2 times the riff, then...


[suonare 2 volte il riff iniziale poi...]
...2nd verse (the same chords as before):
[seconda strofa (stessi accordi precedenti)]:
Oh, mama, mama, saro' cattivo,
ma sono carne e sangue, insomma vivo
Eccomi, mama, col capo chino,
com'e' il castigo? Perche' il castigo?
Oh, mama,
lei stava bene, io stavo bene
Oh, mama,
o e' proprio questo che non si puo' dire?
Libera nos a malo,
per il mio male qual e'?
Libera piano piano
che ci scordiamo com'e'
Libera nos a malo,
toglici pure il perche'
Libera libera libe, libera libera libera, libera
Then there's the solo:
[poi l'assolo:]
E---------|-----------------|-------------------|-----------------|
B-12b(15)-|-----------------|-------------------|-----------------|
G---------|-----------10----|----------10-10-12-|-----------10----|
D---------|-----10-12----12-|----10-12----10-12-|-----10-12----12-|
A---------|-/12-------------|-12----------------|-/12-------------|
E---------|-----------------|-------------------|-----------------|
D
Am
G
E--------------------|-13---------------------------------------------|
B--------------------|----15-13-15-13----15-13----13------------------|
G-----------10-12-10\|----------------14-------14----12-14-12---12----|
D----10-12--10-12-10\|----------------------------------------15--12\-|
A-12-----------------|------------------------------------------------|
E--------------------|------------------------------------------------|
C
D
Am
+
+
+
+
+
+
+
+
(+ = tapping)
E---------------------------------------------|------|
B-13-8-12-8-----------------------------------|-<7>*-|
A-----------14-10-12-10-----------------------|-<7>*-|
G-----------------------15-10-14-10-----------|-<7>*-|
D-----------------------------------14-8-10-8-|-<7>*-|
E---------------------------------------------|------|
G
C
* = apply tremolo by bar
[*= usare la leva del tremolo]
(guitar stops; only bass and keyboards)
[senza chitarra; solo basso e tastiere]
Perdo il numero di casa

D
F
andando dietro me
C
Am
e, al ritorno, chiedo scusa
D
F
e non so perche'
C
A
A
(guitar plays stopped chords)
[la chitarra suona accordi stoppati]
Giu'
D
giu'
G
giu'
D
giu'
G

le mani,
Am
tutto il
C
le mani,
Am
tutto il
C

giu' i pensieri,
corpo, giu' tutto te.
giu' i pensieri,
corpo, giu' tutto te.

(guitar plays normal 8-beat)


[la chitarra suona normalmente]
giu'
D
giu'
G
giu'
D
giu'
G

le mani,
Am
tutto il
C
le mani,
Am
tutto il
C

(w/fig.1)
Libera nos a
D
Am
Libera piano
D
Am
Libera nos a
D
Am
Libera piano
D
Am

giu' i pensieri,
corpo, giu' tutto te, all'inferno!
giu' i pensieri,
corpo, giu' tutto te.

malo
G
piano
G
malo
G
piano
G

C
F
C
F

Ending:
[Fine:]
E----------------|-----------|-----|
B----------------|-----------|--3--|
G--7-7--7-7------|-----------|--2--|
D--7-7--7-7--7-5-|-----------|--0--|
A--5-5--5-5--7-7-|----3---3--|-----|
E------------5-5-|--3---3----|-----|
D
Am
C
D
+-+-+-+-+-+-+-+-+-+-+-+-+-+-+-+-+-+-+-+-+-+-+-+-+-+-+-+-+-+-+-+-+~~~~~~~~~~~~~~~~~~~~~~~~~~~~~~~~
TI CHIAMERO' SAM (SE SUONI BENE)
~~~~~~~~~~~~~~~~~~~~~~~~~~~~~~~~
D
C
E non chiamarmi piu' amico

D
C
se poi mi tratti cosi',
D
G
Em
sono un cliente qui, e pago, accontentami
D
C
come ogni altro.
D
C
Se sono io che lo dico
D
C
non avrai colpe ne' scrupoli:
D
G
picchia quei tasti li',
Em
D
forza, colpiscili, che sono pronto.
G
Em
Suonaci, suonaci
D
C
il pezzo che sai.
G
Em
Mettici l'anima
D
C
quella che puoi.
G
Em
Dacci dei brividi
D
C
lavora, dai
D
C
ho voglia di stare male
D
C
G Em D
se suoni bene ti chiamero' Sa-aa-am,
C
G Em D
C
ti chiamero' Sa-aa-am, ti chiamero'.
L'hai conosciuta anche tu lei:
avrete avuto una vostra canzone
beh, io non so cantare
e poi non so suonare
ma so pagare bene.
Sigaro e grappa
e tutto cio' che vuoi:
io accendo e stappo.
Tutti muti che
il mio amico qua suonera', suonera',
suonera', suonera'.
Suonaci, suonaci
il pezzo che sai.
Mettici l'anima, quella che puoi.
Dacci dei brividi
lavora, dai
ho voglia di ricordare
se suoni bene ti chiamero' Sam,
ti chiamero' Sam, ti chiamero' Sam,
ti chiamero' Sam.
+-+-+-+-+-+-+-+-+-+-+-+-+-+-+-+-+-+-+-+-+-+-+-+-+-+-+-+-+-+-+-+-+~~~~~~~~~~~~~~~~~~~~~~~
URLANDO CONTRO IL CIELO

~~~~~~~~~~~~~~~~~~~~~~~
E4:
D5:
E5:
A5:
C5:
C#5:
F5:
B5:

022200
x577xx
x799xx
577xxx
x355xx
x466xx
x9aaxx (a=10)
799xxx

[Intro nel LIVE di *A che ora e' la fine del mondo?*]


(pianoforte):
(Molto lento)
(F#m)(C#m) (E) (B)
(D) (E)
e:-----------------------------------------B:-----------------------------------------G:-----------------------------------------D:-9--7-7---11--9-9-11--7---9-9-11-12-11-9-A:-----------------------------------------E:-----------------------------------------(F#m)(C#m) (E) (B)
(D)
(Bm)
e:-------------------------------------------------------B:-------------------------------------------------------G:-------------------------------------------------------D:-9--7-7---11--9-9-11--7---4-4-4-4--4--4--4--4--9--9--4-A:-------------------------------------------------------E:-------------------------------------------------------[Intro nel Live di *Su e giu' da un palco*]
Grazie a RED per la TAB
Fa#Do#- Mi Si
Re
Mi
-2------/4----0--2-2-2---2-2------------0-----|
---2----/5----0--4-4-----3---3------------0---|
-----2--/6----1--4-4-----2-----2------------1-|
---------6----2--4-4-----0--------2-2-2-------|
---------4----2--2-2--------------2-2-2-------|
---------4----0--2-2--------------------------|
Fa#Do#- Mi Si
Re
(non so quanti)
-2------/4----0--2-2-2---2-2------2-2-2-2-2-2-|
---2----/5----0--4-4-----3---3----3-3-3-3-3-3-|
-----2--/6----1--4-4-----2-----2--2-2-2-2-2-2-|
---------6----2--4-4-----0--------------------|
---------4----2--2-2--------------------------|
---------4----0--2-2--------------------------|
------------------------------------------|
-----5-----5-----5-----5------------------|
-6-7---6-7---6-7---6-7----/7-6---/7-6---4-|
-------------------------------7------7---|
------------------------------------------|
------------------------------------------|
-5-7-7-5-5--12-12--5-5-7-7--10-9----10-9----|
-5-5-5-5-5--10-10--5-5-5-5--9----10-9----10-|
-6-6-6-6-6--11-11--6-6-6-6--9-------9-------|

-7-7-7-7-7--12-12--7-7-7-7--9-------9-------|
--------------------------------------------|
--------------------------------------------|
-5-7-7-5-5--12-12--5-5-7-7--10-9----10-9----5-|
-5-5-5-5-5--10-10--5-5-5-5--9----10-9----10-5-|
-6-6-6-6-6--11-11--6-6-6-6--9-------9-------6-|
-7-7-7-7-7--12-12--7-7-7-7--9-------9-------7-|
--------------------------------------------7-|
--------------------------------------------5-|
-Bye
ReD
[Intro]
[Prima versione di Andrea Zanovello]
-0-0-0-0-0-0-0-0-0-0-0-0-0-0-0-0---2-2-2-2-2-2-2-2--2-2-2-3-3-3-2-2-2-2-2-3-3-3-2-2---3-3-3-2-2-2-0-0--2-2-2-2-2-2-2-2-2-2-2-2-2-2-2-2---2-2-2-2-2-2-2-2--2-2-2-2-2-2-2-2-2-2-2-2-2-2-2-2---0-0-0-0-0-0-0-0-------------------------------------------------------------------------------------------------------[Altra versione piu' *elettrica*]
(D5)
(E5)
e:--------------------------------B:--------------------------------G:-7-7-7-7-7-7-7-7/9-9-9-9-9-9-9-9D:-7-7-7-7-7-7-7-7/9-9-9-9-9-9-9-9A:-5-5-5-5-5-5-5-5/7-7-7-7-7-7-7-7E:--------------------------------[Riff principale]
(A5)
(D5)
(E5)
---------------------------------------------------------------------------------------9-9-----9-9-----9-9----7-6---7-6-----7-7-----7-7-----7-7------7-----7-----7------------------------------------------------------------------------------------Sono due terzine -----> |-3-| |-3-|
Riff sotto le strofe (si sente bene nella versione LIVE):
e:-----------B:-----------G:-------7-6-- (lasciar suonare)
D:-7-7-7-----A:-----------E:-----------[La ritmica sotto le strofe esegue dei power chord
molto ritmati nella sequenza A5 D5 E5]

A
Come vedi sono qua:
D
E
monta su, non ci avranno
A
D
finche' questo cuore non crepera'
E
A
D E
di ruggine, di botte o di eta'.
Intermezzo:
e:-10-9\5----------------B:-----------------------G:-----------------------D:-----------------------A:--------0h2-/4-5-/9-7--E:-----------------------A
C'e' una notte tiepida
D
e un vecchio blues
E
da fare insieme,
A
in qualche posto accostero'
D
E
e quella la' sara' la nostra casa, ma
F#m
C#m E
B
D
credo che meriti di piu'
E
ma intanto son qua io
F#m C#m
E
B
D
e ti offro di ballarci su:
Bm
e' una canzone di cent'anni almeno.
Intermezzo:
e:--------------------------B:-----5-----5-----5-----5~-G:-6/7---6/7---6/7---6/7----D:--------------------------A:--------------------------E:--------------------------D
E
Urlando contro il cielo.
A
D
E
A
D
E
Ooh, ooh, ooh, ooh, ooh, ooh, ooh, ooh.
A
Non saremo delle star
D
E
ma siam noi, con questi giorni
A
fatti di ore andate per
D
E
un weekend e un futuro che non c'e'.

F#m
C#m E
B
D
Non si puo' sempre perdere
E
per cui giochiamoci
F#m
C#m E
B
D
certe luci non puoi spegnerle.
Bm
Se e' un purgatorio e' nostro perlomeno.
Intermezzo:
e:---------------------------|--------B:-----5-----5-----5-----5~--|-10-9---G:-6/7---6/7---6/7---6/7-----|-----9-D:---------------------------|--------A:---------------------------|--------E:---------------------------|--------^^^^^^^^ da ripetere molte
volte rapidamente
D
E
Urlando contro il cielo.
A
D
E
A
D
E
Ooh, ooh, ooh, ooh, ooh, ooh, ooh, ooh.
[intermezzo pianoforte] (troppo veloce per trascriverlo!)
Gli accordi sono i soliti: A D E
Verso la fine (sul D) entra la chitarra con dei power chords
ritmati a tempo con la canzone e suonati con pennate solo
discendenti:
D5 E5 A5

D5 E5

C
D
Fantasmi sulla A quattordici.
C
D
Dai finestrini passa odor di mare, diesel,
E4 E
merda, morte e vi-ta.
^
L--- Tutti gli accordi di questa strofa si possono
suonare come power chords ( C5 D5 C5 D5 E5 )
senza interrompere la ritmica rispetto
all'intermezzo precedente
F#m
C#m E
B
D
Il patto e' stringerci di piu'
E
prima di perderci.
F#m
C#m E
B
D
Forse ci sentono lassu'.
Bm
E' un po' come sputare via il veleno.
[Anche qui potete usare i power chord:
F5 C#5 E5 B5 D5 E5]
[intermezzo] (vedi sopra)

D
E
Urlando contro il cielo.
A
D
E
A
D
E
Ooh, ooh, ooh, ooh, ooh, ooh, ooh, ooh. (ripete ad libitum)
Finisce con:
A
D
E
A
D
E
Ooh, ooh, ooh,
ooh, ooh, ooh, ooh,
ooh.
(contro il cielo)
(contro il cielo)
A
D
E
A
D
E
A <-- Lasciar suonare
Ooh, ooh, ooh, ooh, ooh, ooh, ooh, ooh. <--- Rallentando
+-+-+-+-+-+-+-+-+-+-+-+-+-+-+-+-+-+-+-+-+-+-+-+-+-+-+-+-+-+-+-+-+~~~~~~~~~~~~~~~~~~~~~
REGALAMI IL TUO SOGNO
~~~~~~~~~~~~~~~~~~~~~
Intro e base per tutta la canzone: E A9
(per il ritmo ascoltate il CD)
Inizio del riff che si sente sotto il ritornello:
se qualcuno lo finisse...
e:-------7-4-0---B:---------------G:---------------D:-------------0-A:---------------E:-0-3-0---------Se ti vuoi
fidare davvero di me
Fallo fino in fondo
Oh, fino in fondo.
Fatti piu' vicina
Regalami il tuo sogno
Regalami il tuo sogno
te lo custodiro'
te lo conservero'
finche' ne avrai bisogno
Regalami il tuo sogno.
Guardami negli occhi
deciderai poi
se aver paura
Regalami il tuo sogno
Regalami il tuo sogno
te lo conservero'
te lo custodiro'
finche' ne avrai bisogno
**
Commenti e soprattutto correzioni ed ampliamenti
saranno sempre i benvenuti!
Mandateli a: tigers@europe.com
e a: news:it.arti.nusica.spartiti (oltre che su OLGA)

==================================================================
ALBUM SOPRAVVISSUTI E SOPRAVVIVENTI
==================================================================
Trascrizioni: Davide Pari <tigers@europe.com>.
tranne: _l'intro di: *Ho messo via*, opera di: Donald Francioli
<donald@excalhq.it>
_*I duri hanno due cuori*, opera di Simone Pastori
<Simonep@sintec.it>
_Gli accordi di: *Quando tocca a te*, opera di Skid
<marcodsm@tin.it>
_Gli accordi di *Pane al pane*, opera di Giusy
_Gli accordi di *Dove fermano i treni*, forniti quasi
contemporaneamente da Giusy e da Gianluigi Gugole
<giangi@goldvi.it>
_Gli accordi di *A.A.A. qualcuno cercasi* corretti da
Andrea Zanovello
Quasi tutti i testi provengono dall'International lyrics server:
www.lyrics.ch, un grazie a chi li ha postati.
Canzoni incluse:
1.
2.
3.
4.
5.
6.
7.
8.
9.
10.
11.
12.
13.

Ancora in piedi (CRD & TAB)


A.A.A. qualcuno cercasi (CRD)
Ho messo via (CRD e alcune TAB)
Dove fermano i treni (CRD)
I duri hanno due cuori (CRD)
La ballerina del carillon (CRD)
Prezoo
Lo zoo e' qui (CRD)
Piccola citta' eterna (CRD & piccole TAB)
Walter il mago (CRD)
Pane al pane (CRD & piccole TAB)
Quando tocca a te (CRD)
Sopravvissuti e sopravviventi: tema (MANCA)

Alcuni accordi poco comuni usati sono elencati qui di


seguito e prima di ciascuna canzone:
C7+
D4
D9
A4

032000
x00233
x00230
002230

+-+-+-+-+-+-+-+-+-+-+-+-+-+-+-+-+-+-+-+-+-+-+-+-+-+-+-+-+-+-+-+-+~~~~~~~~~~~~~~~
ANCORA IN PIEDI
~~~~~~~~~~~~~~~
D9: x00230
A4: 002230
[Intro]
[Grazie per alcune correzioni ad Andrea Zanovello]
Chitarra elettrica distorta

e|---------------------|-------------------|
B|---------------------|-------------------|
G|---------------------|-------------------|
D|---------------0--2--|-------------------|
A|----------0h2--------|-------------------|
E|---------------------|--0----------------|
lasciar suonare l'ultima nota
vvvv
---------------------|--------2--5--4--4----0--|
---------------------|-----3-------------------|
---------------------|-------------------------|
---------------0--2--|--4----------------------|
----------0h2--------|-------------------------|
---------------------|-------------------------|
poi prosegue sotto la strofa:
---------------------|------------------|
---------------------|------------------|
---------------------|------------------|
---------------------|------------------|
---------------------|------------------|
------------0--3--0--|------------------|
...avuti troppe volte senza un perche'
-----------------10--12--|----------------10-9-|
--------------10---------|---------------------|
-------------------------|---------------------|
-------------------------|---------------------|
-------------------------|---------------------|
-------------------------|---------------------|
...sopravvissuti alle nostre...
--10--9----------------|--------------------------|
-----------10----------|--------------------------|
-----------------------|--------------------------|
-----------------------|--------------------------|
-----------------------|--------------------------|
-----------------------|--------------------------|
-------------------5--4--0--|---------------------|
----------------------------|--0------------------|
----------------------------|---------------------|
----------------------------|---------------------|
----------------------------|---------------------|
----------------------------|---------------------|
...ridicole
Riff principale [Grazie ad Andrea Zanovello]
-------------------------------------------------------------------------10-9--7----0--------------------------------------9-9---11---------7------0h2----------------------------------9-9-9----9-------7------------0h2--------------------------------------------------------2---------------------------------------------------------------------------------------------------------------------------------------------------------------------10-9--7----0--------------------------------------

-9-9---11---------7------0h2----------------------------------9-9-9----9-------7------------2----------------------------------------------------------2---------------------------------------------------------------------------------------------

E
A
Sopravvissuti a troppi sorrisi
D
A
E
avuti troppe volte senza un perche'
A
Sopravvissuti alle nostre domande
D
A
che son grosse, son tante
E
e spesso ridicole.
A
Sopravvissuti e sopravviventi
D
A
E D
cosi' e adesso e qui.
E
D
A
Sopravvissuti ai nostri progetti
D9
A4
E
acqua, sabbia, paletta e castelli cosi'.
E
A
Persi o no siamo ancora
E
A
non so chi, ma qualcuno
E
A
Persi o no siamo ancora
E
siamo ancora che, siamo
D
siamo ancora chi, siamo

D
in piedi
D
si sentira' cosi'
D
in piedi
A
ancora chi,
A
E
ancora che ne so...

[C.S.]
Sopravvissuti ai nostri pensieri
a consigli, sbadigli, falsi sensi unici
Sopravvissuti alle voci gridate
come ai troppi silenzi, come ai mormorii
Sopravvissuti e sopravviventi
ma chi? E che ne so...
Sopravvissuti ai sensi di colpa:
c'e' chi puo' non ascolta e, cazzo,
c'e' chi non puo'
Persi o no siamo ancora
non so chi, ma qualcuno
persi o no siamo ancora
siamo ancora che, siamo
siamo ancora chi, siamo
Bm

in piedi
si sentira' cosi'
in piedi
ancora chi,
ancora che ne so...

D
E' un mare pieno di zattere
A
E
Bm
e' un mare pieno di salvagenti
D
A

e' un mare con qualche isola


Sopravvissuti a vecchi e nuovi dolori
che aspettiamo i vaccini, nel frattempo chissa'
Sopravvissuti a tutto questo letame
quanti bagni e profumi e mascherine antigas
Sopravvissuti e sopravviventi
un po' su, un po' giu, un po' su
Sopravvissuti ai '60 ai '70
e gli '80 finiranno mai piu'?
Persi o no siamo anocra in piedi
non so chi ma qualcuno si sentira' cosi'
persi o no siamo ancora in piedi
siamo ancora che, siamo ancora chi,
siamo ancora chi, siamo ancora che ne so...
+-+-+-+-+-+-+-+-+-+-+-+-+-+-+-+-+-+-+-+-+-+-+-+-+-+-+-+-+-+-+-+-+~~~~~~~~~~~~~~~~~~~~~~~
A.A.A. QUALCUNO CERCASI
~~~~~~~~~~~~~~~~~~~~~~~
[Capo I tasto]
[Intro] E
A D
[TAB di Gianfranco di Summa]
E|--0---0-------------|--0--0-----------|
B|--0---0-------2-----|-------3-2---2---|
G|----------2-4---4-2-|--2--2-----4---4-|
D|-2---2--2-----------|-2--2------------|
A|--------------------|-----------------|
E|--------------------|-----------------|

X3

4 volta
E|---0--0-----0--0------------|
B|---0----2---0---2-3-2---2---|
G|----------------------4---4-|
D|-2---2----2---2---4-----2---|
A|----------------------------|
E|----------------------------|
[TAB alternativa di ALessandro Marini]
[Intro/Riff]
MI
LA
RE
LA
e:-----------------|-----------------|-----------------|----------------|
B:-----------------|---------2-------|--------------(2)|-3-2-----2------|
G:-----------------|-----2-4---4-2---|------------(4)--|-----4-------4--|x
D:-2---2-2-2---2-2-|-2---------------|-2---2-2-2---2-2-|----------------|2
A:-----------------|-----------------|-----------------|----------------|
E:-----------------|-----------------|-----------------|----------------|
1 . 2 . 3 . 4 .
1 . 2 . 3 . 4 .
1 . 2 . 3 . 4 .
1 . 2 . 3 . 4 .

E
Forse e' uno buttato via,
A
D
forse e' uno zorro, forse una spia,
E
A
D
forse e' il poeta che non ha mai scritto niente
E
Forse e' uno comunque sia,
A
D
basta che respiri e che non se ne vada via
E
A
D
forse e' quello che e' come un incidente
[Fill]
forse e' cosi'
[Fill] [da Alesandro Marini]
MI
LA
RE
e:-----------------|-----------------|-----------------|----------------|
B:-----------------|--.--------------|-----------------|-3--------------|
G:---------1-------|-2---1-----------|-4-4-4-4-4-------|---------4-4-4--|
D:-2---2-----------|---------2~------|-----------------|----------------|
A:-----------------|-----------------|-----------------|----------------|
E:-----------------|-----------------|-----------------|----------------|
1 . 2 . 3 . 4 .
1 . 2 . 3 . 4 .
1 . 2 . 3 . 4 .
1 . 2 . 3 . 4 .

[C.S.]
Forse
forse
forse
Forse
forse
forse

e'
e'
e'
e'
e'
e'

fiamme e cenere
una che e' un po' troppo per te
quella che qui ti tocca bere
una che non ne puo' piu'
quella che "mancavi solo tu"
la biscia che e' stata troppo in giro

Bm
Se fosse quello andato a male?
D
E
Se fosse quella con l'anima a pile?
D
Se fosse li' mentre pensi chissa' dov'e'?
E
Ma c'e' qualcuno anche per te
A
c'e' qualcuno anche per te
D
E
in questo vecchio girotondo

A
c'e' qualcuno anche per te
D
E
e, forse, e' perso per il mondo
A
c'e' qualcuno anche per te
D
E
e forse se ne sta morendo
A
o sta cercando proprio te
D
E
A D
ma c'e' qualcuno anche per te
Forse e' un ladro senza intenzione
forse e' uno snob, forse un barbone,
un equilibrista che sa cos'e' la rete
Forse e' una stella in fondo a un fosso
od una coperta da metterti addosso
o la sanguisuga che ha solo troppa sete
Se fosse quello senza parole?
Se fosse quella che non vuoi vedere?
Se fosse li' mentre pensi chissa' dov'e'?
E
Ma c'e' qualcuno anche per te
A
c'e' qualcuno anche per te
D
E
in questo vecchio girotondo
A
c'e' qualcuno anche per te
D
E
e, forse, e' perso per il mondo
A
c'e' qualcuno anche per te
D
E
e forse se ne sta morendo
A
o sta cercando proprio te
D
E
A D
ma c'e' qualcuno anche per te
[solo]
C#m
B
e, in mezzo a tutto questo perdersi,
A
c'e' un uscio chiuso nell'anima
E
B
chissa' se ti ricordi la tua chiave dov'e'?
C#m
B
e, in mezzo a tutto questo sciogliersi,
A
fa piu' il destino o la volonta'?
E
E se la risposta e' *amore*,
B
la domanda qual e'?
E
A D
Qual e'?

C'e' qualcuno anche,


c'e' qualcuno anche,
c'e' qualcuno anche per te
+-+-+-+-+-+-+-+-+-+-+-+-+-+-+-+-+-+-+-+-+-+-+-+-+-+-+-+-+-+-+-+-+~~~~~~~~~~~~
HO MESSO VIA
~~~~~~~~~~~~
D4
C7+

x00233
032000

[Intro]
VERSIONE N.1
[NdA: Questa e' una mia trascrizione dell'intro che uso per
esecuzioni acustiche. rispetta all'incirca la melodia suonata
dal piano sul CD in studio. Di seguito trovate un'altra
trascrizione non fatta da me che dovrebbe essere piu' fedele
alla parte di chitarra del CD]
G
C
e|--------3------2h3--2---|--0----------0-0-2-3-|
B|----0---3----3--------3-|--1--------1---1-3-5-|
G|--2---0-0---------------|--0------0-----------|
D|--------0---------------|--2------------------|
A|--------2---------------|--3------------------|
E|--------3---------------|--3------------------|
Em
C
D
--0-----------------|-----------------|
--0-----0--0--1--3--|------1p0-3------|
--0---0----0--0--0--|--0~------2------|
--2-----------------|--0~-------------|
--2-----------------|-----------------|
--0-----------------|-----------------|
VERSIONE N.2
trascrizione opera di: "Donald Francioli" <donald@excalhq.it>
mi --2h3-----3--3--2-------------------------------------2SI ------3------------3/5~--5--7/8--------1--3-----1--0--3SOL--------0-----------------------4~--4-----------------2RE --------------------------------------------5~---------LA -------------------------------------------------------MI -------------------------------------------------------(Sicuramente si puo' completare aggiungendo quanto meno i bassi.)
(nella progressione, tra il Do e il MIm)
mi-----------0------------0-------SI-----------1------------0-------SOL----------0------------0-------RE-----------2------------2-------LA-----------3------------2-------MI-----------3----3---2---0-------VERSIONE N.3
Opera di THE SUN

[Facendo di seguito la versione1 e questa si ottiene l'intro della


versione
live di *su e giu' da un palco* NdT]
Riff 1:
E--------------------------------------------------------------------~12--B----------------------------------------------------5---------7-----~12--G-----------0-------------------------------------------5---------7--~12--D--------------5--4--0--~5--2--4--5-----------0--~5--------~7--------~12--A---2p0------------------------------2--2--3------------------------------E--------3----------------------------------------------------------------[Versione leggermente corretta da me NdT]
leva vibrato
Riff 1:
vvvvvvv
E--------------------------------------------------------------------12--B----------------------------------------------------5---------7-----12--G--------0----------------------------------------------5---------7--12--D-------------/5--4--0-/5~--2--4--5-----------0--/5~-------/7~--------12--A---2p0------------------------------2--2--3-----------------------------E------3-----------------------------------------------------------------|_Ho messo via...
NB: lo slide up (/) senza nota pirma o con prima una nota vuota indica di
suonare la nota *scappando lungo il manico* senza partire da un posto
preciso, basta che si senta l'effetto
[Inoltre THE SUN suggerisce anche di sostituire il C con
un C9 (x32033 opp x32030). A me pare valido solo in alcuni punti,
ma come al solito decidete pure voi :) ]
G
Ho messo via un po' di rumore
C
Em
dicono cosi' si fa nel comodino c'e' una mina
C
D
e tonsille da seimila watt.
G
Ho messo via i rimpiattini
C
dicono non ho l'eta'
Em
se si voltano un momomento
C
D
G
C Em C D [riff1]
io ci rigioco perche' a me... va.
G
Ho messo via un po' di illusioni
C

che prima o poi basta cosi'


Em
ne ho messe via due o tre cartoni
C
D
comunque so che sono li'.
G
Ho messo via un po' di consigli
C
dicono e' piu' facile
Em
li ho messi via perche' a sbagliare
C
D4
sono bravissimo da me.
D
Bm
Mi sto facendo un po' di posto
C
e che mi aspetto chi lo sa
Em
C
D4
che posto vuoto ce n'e' stato ce n'e' ce ne sara'.
D
G
Ho messo via un bel po' di cose
C
ma non mi spiego mai il perche'
Em
D
G C
io non riesca a metter via te
[Grazie a RED per questa TAB]
-3----|-------3----|----------------|------------|-------3----|
------|------------|----------------|------------|------------|
------|------------|----------------|------------|------------|
----5-|-5--5-----5-|-5--5-----------|------------|-5--7-----5-|
------|------------|----------------|------------|-3--5-------|
------|------------|-------0--3--5/-|-7--8--7--5-|------------|
-------3----|-/8-----------------|------------|------|
------------|-----8--8-----------|------------|------|
------------|--------------------|------------|------|
-5--5-----5-|--------------------|------------|-5--7-|
------------|--------------------|------------|-3--5-|
------------|-----------0--3--5/-|-7--8--7--5-|------|
[Altra versione di questa TAB fornita da Andrea Zanovello]
[1 solo]
--3----3-------------------------0--2----3----3---3/8------------------0-2------3----3------------------------1--3-----3----3-----8-----------------1-3-------0----0-----------------------0--2------0---------------------------0-2------------------------------------2--0----------------------------------2-0--------------------0--2-3-2-0------3-------------------------0-2-3-2-0---3------------------0-3-------------3---3----------------------0-3----------3-3-----G

Em

C D

G
Ho messo via un po' di legnate
C
i segni quelli non si puo'
Em
che non e' il male ne' la botta
C
D
ma purtroppo il livido.
G
Ho messo via un bel po' di foto
C
che prenderanno polvere
Em
sia su rimorsi che rimpianti
C
D4
che rancori e sui perche'
D
Bm
Mi sto facendo un po' di posto
C
e che mi aspetto chi lo sa
Em
C
D4
che posto vuoto ce n'e' stato ce n'e' ce ne sara'.
D
G
Ho messo via un bel po' di cose
C
ma non mi spiego mai il perche'
Em
D
G C
io non riesca a metter via te
[solo tromba]
G
C
Em
C D
Bb
In queste scarpe
F
D
e su questa terra che dondola
dondola dondola dondola
Bb
con il conforto di
F
D
un cielo che resta li'
Bm
Mi sto facendo un po' di posto
C
e che mi aspetto chi lo sa
Em
C
D4
che posto vuoto ce n'e' stato ce n'e' ce ne sara'.
D
G
Ho messo via un bel po' di cose
C
ma non mi spiego mai il perche'
Em
D
io non riesca a metter via
C7+
D
riesca a metter via,
Em
D
G C
riesca a metter via te
[Finale: ancora una volta grazie a RED per la TAB]

Em

C D (x4) G

-3---|--------------|----------------|-----|-------------|
---3-|/8-7----------|/8-7----/10-8-7/|-8\5-|/5---5/7---7-|
-----|-----7\/5-4\2-|-----7\---------|-----|---5-----7---|
-----|--------------|----------------|-----|-------------|
-----|--------------|----------------|-----|-------------|
-----|--------------|----------------|-----|-------------|
--------------|-----------------|---------|--------|
-15\/12-------|-15\/12-15-12----|---------|--------|
--------12-12\|--------------12-|-/12-/11-|-/9-/11-|
--------------|-----------------|---------|--------|
--------------|-----------------|---------|--------|
--------------|-----------------|---------|--------|
----------------------|-----------------------|----------------------|
-10/12-12-12-12/15-12-|-10/12-12-12-12--------|-10/12-12-12-12/15-12-|
----------------------|----------------/12----|----------------------|
----------------------|--------------------12-|----------------------|
----------------------|-----------------------|----------------------|
----------------------|-----------------------|----------------------|
-----------------------|-----|
-10/12-12-12/15-15-15\-|-/12-|
-----------------------|-/12-|
-----------------------|-----|
-----------------------|-----|
-----------------------|-----|
+-+-+-+-+-+-+-+-+-+-+-+-+-+-+-+-+-+-+-+-+-+-+-+-+-+-+-+-+-+-+-+-+~~~~~~~~~~~~~~~~~~~~
DOVE FERMANO I TRENI
~~~~~~~~~~~~~~~~~~~~
[Intro/Riff] [Da Alessandro Marini]
|MIm
1 2

|MIm SOL RE |MIm


1 2 3 4
1 2

|MIm
1 2

LA SI |
3 4

Em
Bm
A
G
A
Binario tre un rapido con destinazione andar via
Em
Bm
A
per quelli che ci credono che spostarsi
G
A
li salvi comunque sia... ma
Em
due militari su una panchina
Bm
A
G
A
voglia di donna, voglia di casa, voglia ora
Em
il fante di spade fa l'occhiolino
Bm
A
G A
vive nei cessi e spesso le ha prese tante e ancora.
Em
Dove fermano i treni
Em
G D
parte un po' di vita, da
Em
dove fermano i treni

X2

e proprio la' dove fermano i treni


G
D
Bm
parte sempre un altro varieta'
A
Em
parte sempre un nuovo varieta'.
STRUM. D

Em

Em
Bm
A
G
Chi parte e chi arriva e chi viene li' solo a guardare
Em
Bm
A
G
A
protagonisti anonimi, si' ma interpretazione reale
Em
un vagabondo nel suo cappotto
Bm
brucia il giornale usato per letto
A
G
A
e fischia la Carmen
uno nervoso in sala d'aspetto
Bm
A
G
A
E' li' da giorni senza biglietto, piange e dorme.
Em
Dove fermano i treni
Em
G
D
parte un po' di vita, da
Em
dove, fermano i treni
e proprio la' dove fermano i treni
G
D Bm
parte sempre un altro varieta'
A
Em
parte sempre un nuovo varieta'.
STRUM. Em

D /F# (3 volte) Bm

Em
Bm
La cameriera del bar che ogni tanto ammira
A
un panorama di Cuba su una cartolina
poi asciuga il bicchiere ed il naso e... sospira.
Em
Bm
Un juke box rovinato e buono da buttare
A
suona sempre una vecchia canzone d'amore
per un tipo con tanta moneta
A
e qualcosa da ricordare.
Em
Bm
Poi c'e' quella che prima chiede se hai da fumare
A
poi ti chiede se hai voglia di fare l'amore
ed infine ti prega di darle qualcosa, sta, sta male.
Em
Bm
E sul vecchio cartello di Bitter Campari
A
su colonne, vetrine ed infine sui muri
G
Em
passi, metti la firma ed infine e vai fuori.
Parte un po' di vita, da
Em

dove fermano i treni


Em
G
D
parte un po' di vita, da
Em
dove fermano i treni
e proprio la' dove fermano i treni
G
D Bm
parte sempre un altro varieta'
A
Em
parte sempre un nuovo varieta'.
+-+-+-+-+-+-+-+-+-+-+-+-+-+-+-+-+-+-+-+-+-+-+-+-+-+-+-+-+-+-+-+-+~~~~~~~~~~~~~~~~~~~~~~
I DURI HANNO DUE CUORI
~~~~~~~~~~~~~~~~~~~~~~
Parte tra una strofa e l'altra [Andrea Zanovello]
La Re
La Re
~
-0--2-------------0--2---------------2--3--3-2--------2--3---3-2----5----2--2------2-1-2--2--2-------2-------2--0-------------2--0---------------0----------------0-----------------------------------------------------[NOTA: questa trascrizione mi e' stata fornita da Simone. Mi sono
permesso di abbasssarla tutta di un semitono per portarla a quella
che mi sembra la tonalita' del CD originale. Spero di non avere
toppato]
[TAB di Alessandro Marini]
[Intro/Outro]RE FA#m
MI
RE
FA#m
MI
e:-----------------|-----------------|-----------------|----------------|
B:-----------------|-----------5~----|-----------------|-----------5----|
G:-------7-7-7-7---|-----------------|-------7-7-7-7---|----------------|
D:-------7-7-7-7-4-|-----2-----------|-------7-7-7-7-4-|-----2----------|
A:---------------4-|-----2-----------|---------------4-|-----2----------|
E:-----------------|-----------------|-----------------|----------------|
1 . 2 . 3 . 4 .
1 . 2 . 3 . 4 .
1 . 2 . 3 . 4 .
1 . 2 . 3 . 4 .
[Intro]
[Outro]
RE
FA#m|
MI
LA
|
MI
LA
e:----------------|-----------------|---------|-----------------|--------|
B:----------------|-----------------|---------|-----------------|--------|
G:----7-7-7-7-7---|-----------2/4---|-2~------|-----------2-5\4-|-2~-----|
D:----7-7-7-7-7-4-|-----2-----------|---------|-----2-----------|--------|

A:--------------4-|-----2-----------|---------|-----2-----------|--------|
E:----------------|-----------------|---------|-----------------|--------|
1 . 2 . 3 . 4 .
1 . 2 . 3 . 4 .
1 2 3 4
1 . 2 . 3 . 4 .
1 2 3 4
intro: D
A

E
E
E
E
E

D
F#m
Un quarto alle dieci e Veleno e' seduto
E
A
D
F#m
da Mario davanti a una grappa e a un posacicche pieno.
A
D
F#m
Lo salutano male forse perche' sanno tutto di lui
D
F#m
o almeno ne sanno una loro versione.
A
D
F#m
Una foto di donna gli brucia da dentro la giacca
A
D
F#m
chiaramente dalla parte del cuore
A
D
F#m
E
e la gamba gli duole del peso e del freddo di un cannone
A
D
F#m
che chissa' come
e' riuscito a trovare
D
E
non ha tempo ne voglia di pregare Dio perche'
vuol contare soltanto sul suo dolore, su sei colpi
[riff]A
e infine su di se'.
F#m

[TAB di Alessandro Marini]


[Riff]LA
RE
FA#m
MI
e:---|---------------|-----------.-.|--------------|-2-----2-------------|
B:--/|\------------2-|-5--------3-2-|----------3-2-|---------5-3-2-3-2-.-|
G:-2-|-2-----2-2-4---|--------------|--------------|-------------------4-|
D:---|---------------|--------------|-4------------|---------------------|
A:---|---------------|--------------|--------------|---------------------|
E:---|---------------|--------------|--------------|---------------------|
4
1 2 3 . 4 .
1 2 3 4 .
1 2 3 4 .
1 2 3
.
4
.
A

D
C'e' chi ha scelto la donna sbagliata
F#m
E
e forse ha scelto per tutta la vita
A
D
F#m
E
altra scelta che ha e' di farla finita
A
D
E c'e' chi ha scritto bestemmie sul cuore
F#m
E
pero' i conti per se' li sa fare

A
E

D
F#m
E
ma il totale non cambia anche se fa star male.
C#m
Pero' non piange mai
D
E
se non e' davvero solo
A
D
I duri hanno due cuori
F#m
D
E
col cuore buono amano un po' di piu'
A
D
I duri hanno due cuori
F#m
col cuore guasto
D
E
A
D
F#m
odiano sempre un po' di piu'
ooohhhh!

E A

F#m

Un quarto alle due e Veleno e' seduto


sul ponte sul fiume a vedere la pistola affondare
adesso il freddo e' reale e' passato alle ossa uscendo per
forza dal cuore
di cosi tanto mondo c'e' solo un posto in cui possa tornare
e gli scappa una stramaledizione
sta pensando che la sera dopo dara' un cazzotto ad un tipo
che questa sera rideva di lui e si e' fatto sentire
dara' pugni alla porta di camera sua e urlera'
alla sua donna e al suo amico di fare piu' piano e sul suo divano
si stendera'
C'e' la notte di chi c'ha un amante
e la notte di chi non ha niente
e la notte per forza volenti o nolenti
E c'e' chi ha perso una brutta partita
ma comunque una fiche gli e'restata
e puo'darsi ci sia un altro giro di ruota
E poi non piange mai
se non e' davvero solo
I duri hanno due cuori
col cuore buono amano un po' di piu'
i duri hanno due cuori
col cuore guasto odiano sempre un po' di piu'
outro: D
D

E A
A

F#m

ooooohhhhh!

E(tre volte questi tre accordi)

(di chiusura)

ciao, Simone
Simonep@sintec.it
+-+-+-+-+-+-+-+-+-+-+-+-+-+-+-+-+-+-+-+-+-+-+-+-+-+-+-+-+-+-+-+-+~~~~~~~~~~~~~~~~~~~~~~~~~

LA BALLERINA DEL CARILLON


~~~~~~~~~~~~~~~~~~~~~~~~~
[Intro]
Bm F#m G A
e|--7----7-------5----9--|------12----9---12--------|
B|--7----7----7--7----7--|------10----10--14----10--|
G|-----------------------|----------------------11--|
D|-----------------------|--------------------------|
A|-----------------------|--------------------------|
E|-----------------------|--------------------------|
|------12----9---12--------|------------------------|
|------10----10--14----10--|------------------------|
|----------------------11--|----6h7p6---9-----7p6---|
|--------------------------|------------------------|
|--------------------------|------------------------|
|--------------------------|------------------------|
[Altra versione di Alessandro Marini]
[Intro/Riff]
SIm
FA#m/LA
FA#m
SOL
e:|-7---7---7------|----------------|-5---5-----5---5-|-----------------|
B:|-7---7---7-10---|-7---7---7-10---|-7---7-----7---7-|-2^3-3---5---3-2-|
G:|-7---7----------|-6---6---6------|-6---6---6-------|-----------------|
x
D:|----------------|-7---7----------|-----------------|-----------------|
2
A:|----------------|----------------|-----------------|-----------------|
E:|----------------|----------------|-----------------|-----------------|
1 . 2 . 3 . 4 . 1 . 2 . 3 . 4 . 1 . 2 . 3 . 4 .
1 . 2 . 3 . 4 .
Bm
F#m
Il night chiude alle tre
G
A
manda a nanna il professore
Bm
F#m
Donne con lui non ce n'e',
G
A
e' fatto cosi', non vuol pagare
Bm
F#m
G
A
ma nanananana e' un compleanno su cui passare
Bm
F#m
G
A
Bm
e nanananana brinda al suo pendolo ed al suo din-don
si alza la ballerina del carillon
L'ombra dipende dal neon
pensa la spogliarellista
e, intanto, stima il cammeo
che una tipa tiene in vista
ma, nanananana il seno casca e un cliente fischia
e, nanananana balla piu' in fretta e lancia cotillons
gira la ballerina del carillon
Sul piano del piano bar

ci son troppe poche mance


e, allora, va avanti a suonare
un pezzo buono per la pancia
ha, nanananana le dita gialle fra il bianco e il nero
e, nanananana forse un po' si diverte sul giro in sol
balla la ballerina del carillon
LO ZOO E' QUI
[Intro] Em
G D
Riff iniziale [contributo di Andrea Zanovello]
Sol Re
---------------------------------------------------------------------- (3v)
-----------------0-2----------------0-2---------0-0--2b3-0------------

--3---2----3---3----0---2----0---0----2--------3-------

[TAB di Alessandro Marini]


Da notare che e' "tirata fuori" sul riferimento del "live", piu'
che sul brano originale, perche' c'era troppa distorsione sulla
chitarra. E' comunque abbastanza attendibile rispetto alla versione
in studio
[Intro/Riff]
|-3-|MIm
|-3-|
|-3-|LA
e:-------------------|-------------------|-------------------|
B:---------------3-5-|---------------3-5-|---------------3-5-|
G:-------0---2-------|-------0---2-------|-------0---2-------|
D:-2-2-2---2---2-----|-2-2-2---2---2-----|-2-2-2---2---2-----|
A:-------------------|-------------------|-------------------|
E:-------------------|-------------------|-------------------|
1
2 . 3 . 4 .
1
2 . 3 . 4 .
1
2 . 3 . 4 .
+------+------| 1,3
| 2
|SOL
RE
|SOL
RE
e:-3-----2----|-3-2-0---2---0---|
B:-3-----3----|-------3---------|
G:-0-----2----|-----------------|
D:-0-----0----|-----------------|
A:-2----------|-----------------|
E:-3----------|-----------------|
1 2 3 4
1 . 2 . 3 . 4 .
Em
Cavallo da corsa, cavallo da soma
A
G
D
cavallo non ancora catturato
Em
Lupo da branco, lupo da solo
A
G
D
Em
il lupo tanti agnelli e niente denti, che peccato
A
G
D
Em
A
G D
che peccato, che peccato, che peccato

Em
Scimmia da spalla, scimmia da pianola
A
G D
scimmia brava per la nocciolina
Em
Toro da sagra, toro botta sola
A
G
D
toro solo andata da corrida
A
G
e, amico, che ti piaccia o no, e' cosi'
D
Em
e lo zoo e' qui
A
G
D
lo zoo, lo zoo e' adesso e' qui
Em
A
G
D
lo zoo e' aperto, e' adesso, e' qui
Em
A
G
D
A
lo zoo e' aperto, e' adesso, e' gratis ed e' qui
A
lo zoo e' qui
Em
Oche da ingrasso, squali da piscina
A
G D
jene ridens piene di motivi
Em
civette da spasso, cani a bocca piena
A
G D
sirene da morirci se le vedi.
Em
Mosche da merda, cobra alla catena
A
G D
poiane sempre sugli stessi rami
Em
faine alla corda, vampiri di mattina,
A
G
D
camaleonti sempre troppo uguali
A
G
e, amico, che ti piaccia o no, e' cosi'
D
Em
e lo zoo e' qui
A
G
D
lo zoo, lo zoo e' adesso e' qui
Em
A
G
D
lo zoo e' aperto, e' adesso, e' qui
Em
A
G
D
A
lo zoo e' aperto, e' adesso, e' gratis ed e' qui
C
Lo lo lo lo lo zoo e'
D
lo lo lo lo lo zoo e'
C
Lo lo lo lo lo zoo e'
D
lo lo lo lo lo zoo e'
C
Lo lo lo lo lo zoo e'

D
lo zoo e' qui,
lo zoo e' qui
[Finale]
Em
A G D
Em
+-+-+-+-+-+-+-+-+-+-+-+-+-+-+-+-+-+-+-+-+-+-+-+-+-+-+-+-+-+-+-+-+~~~~~~~~~~~~~~~~~~~~~
PICCOLA CITTA' ETERNA
~~~~~~~~~~~~~~~~~~~~~
A4 002230
[Intro]
e:----0-----------------B:--------3----2/3p2p0--G:--2---2--------------2D:----------------------A:----------------------E:----------------------[Riff da parte di Andrea Zanovello]
La
Re
--0-0-0-0-0---0-0-0---0-0-0-0-0-0----2-2-2-2-2---2-2-2---2-2-2-2-2-2--3-3-3-2-3---3-2-3---3-2-3-2-0-2----3-3-3-2-3---3-2-3---3-2-3-2-0-2---2-2-2-2-2---2-2-2---2-2-2-2-2-2----2-2-2-2-2---2-2-2---2-2-2-2-2-22v.
--2-2-2-2-2---2-2-2---2-2-2-2-2-2----0-0-0-0-0---0-0-0---0-0-0-0-0-0----------------------------------------------------------------------------------------------------------------------------------------[TAB di Alessandro Marini]
Inoltre c'e' il riff che si sente sull'intro e che si ripete
in altri punti
[Intro] RE
LA
RE
e:----|---------|-------------|---------|---------|---------|------------|
B:-5--|-3~~=====|======-2-3-2-|---------|------5--|-3~~=====|======-2-32-|
G:2-2-|---------|-------------|-2~~=====|=====2-2-|---------|------------|
D:----|---------|-------------|---------|---------|---------|------------|
A:----|---------|-------------|---------|---------|---------|------------|
E:----|---------|-------------|---------|---------|---------|------------|
4
1 2 3 4
1 2 3 . 4 .
1 2 3 4 1 2 3 4
1 2 3 4
1 2 3 . 4 .
LA
RE
SIm
FA#m
e:---------|----------|---------|-------------|-2-------|-2-------|
B:---------|-------5--|-3~~=====|====-3-2-----|-3-------|-2-------|
G:-2~~=====|=====-2-2-|---------|-----2---4-2-|-4-------|-2-------|

D:---------|----------|---------|-----2-------|-4-------|-4-------|
A:---------|----------|---------|-------------|---------|---------|
E:---------|----------|---------|-------------|---------|---------|
1 2 3 4
1 2 3 4
1 2 3 4
1 2 3 . 4 .
1 2 3 4
1 2 3 4
RE
MI
e:---------0-------|---------0-------|
B:-3-3-3-3---3-3-3-|-5-5-5-5---5-5-5-|
G:-2-2-2-2---2-2-2-|-4-4-4-4---4-4-4-|
D:-----------------|-----------------|
A:-----------------|-----------------|
E:-----------------|-----------------|
1 . 2 . 3 . 4 .
1 . 2 . 3 . 4 .
[Riff]
LA
RE
e:-----------------|-----------------|-----------------|----------------|
B:-3-3-3-2-3-----2-|-3-----2-3-2-----|-3-3-3-2-3-----2-|-3-----2-3-2----|
G:-----------------|-------------4-2-|-----------------|-------------4-2|x
D:-----------------|-----------------|-----------------|----------------|2
A:-----------------|-----------------|-----------------|----------------|
E:-----------------|-----------------|-----------------|----------------|
1 . 2 . 3 . 4 .
1 . 2 . 3 . 4 .
1 . 2 . 3 . 4 .
1 . 2 . 3 . 4 .
[Fill]LA
e:-----------------|-0-----0-----0---|
B:-2---------------|-2-----2-----2---|
G:-2---------------|---2-2---2-2---2-|
D:-2---------------|-----------------|
A:-----------------|-----------------|
E:-----------------|-----------------|
1 . 2 . 3 . 4 .
1 . 2 . 3 Regina_ha
D
A4
Regina ha quattro amanti e due o tremila nomi
D
A4
e neanche un uomo che la porti fuori un po'
D
Bm
D
ma, intanto, tiene il letto pronto e il frigo pieno____oo___
Bm
A4
e ride in faccia alle comari che mugugnano
Ramengo con la luna piena va sui tetti
dice che e' per sentirsi piu' vicino a Dio
balla su case di prudenza e conti fatti
chissa' perche' la sua canzone sembra un miagolio
A4
Gente persa in una
D
piccola citta' eterna
A4
piccola citta' testarda

D
A4
piccola citta' con gli occhi chiusi a meta'
Bm
piccola citta' che cerchi in giro
D
e spesso cio' che cerchi e' qua
Bm
A
c'e' chi la ama, chi la odia e lei rimane piccola______
A4
ai ai ai ai ai ai aia
A
a_____________________
A4
ai ai ai ai ai ai aia
Colera sottobraccio ha un pacco da sei birre
ed il diritto di sedersi dove puo'
a dar la nanna, un po' ad un altro brutto giorno___
se se la prende bene fischia e te ne offre un po'
A4
Gente immersa in una
D
piccola citta' gia' vista
A4
piccola citta' che insiste
D
A4
piccola citta' con gli occhi aperti a meta'
Bm
D
piccola citta' che, sana o no, un'anima pero' ce l'ha
Bm
A
se ripassate fra cent'anni ci trovate sempre qua____
A4
ai ai ai ai ai ai aia
A
a_____________________
A4
ai ai ai ai ai ai aia
E Radio Flit ancora spruzza il suo veleno
fatto da chi non riesce a farsi i cazzi suoi
c'e' chi la spegne e chi si sintonizza bene
o sei uno di loro o sei quello che tu vuoi
A4
Gente sparsa in una
D
piccola citta' eterna
A4
piccola citta' testarda
D
A4
piccola citta' che chi si muove di qua?
+-+-+-+-+-+-+-+-+-+-+-+-+-+-+-+-+-+-+-+-+-+-+-+-+-+-+-+-+-+-+-+-+~~~~~~~~~~~~~~
WALTER IL MAGO
~~~~~~~~~~~~~~
[TAB di Alessandro Marini]

-------------+
[Intro/Outro](piano arr.per chitarra)
fine Outro |
SI
MI
|
e:---------------7-|---------------7-|-------------------|------------------|
B:-------7-----7---|-------7-----7---|-------9----10-9---|-------9----109---|
G:-8---8-----8-----|-8---8-----8-----|-------9---------9-|-------9--------9-|
D:-9-9-----9-------|-9-9-----9-------|-----9---(9)-------|-----9---(9)------|
A:-----------------|-----------------|---7---------------|---7--------------|
E:-----------------|-----------------|-7-----------------|-7----------------|
1 . 2 . 3 . 4 .
1 . 2 . 3 . 4 .
1 . 2 . 3 . 4 .
1 . 2 . 3 .
4 .
B
Con una giacca sbagliata
E
Walter il mago si presentera' di nuovo qua
B
Con un cilindro truccato
E
ed un coniglio vecchio quasi come il trucco che fa
B
E
Ed il suo abra cadabra-cadabra abra
B
si fa chiamare zingaro
E
ma e' uno zingaro di lusso e lo sa. Lo sa
Seconda attrazione del circo
Walter il mago tornava da Mario come una star
le mani molto piu' ferme e storie di donne che
lo aspettavano in ogni citta'
per un suo abra cadabra-cadabra abra
e la magia piu' grossa giura
che gli e' successa in casa sua
con il suo cane per pubblico,
*per una magia cosi'* dice *val la pena vivere*
B
Fai comparire una donna
E
fai apparire una donna
B
F#
E
faremo apparire una birra noi, se vuoi
B
Fai comparire una donna
E
fai apparire una donna
B
F# E
B
che questa notte fara' meno freddo, vedrai
Con i suoi scarsi segreti
Walter il mago si presentera' di nuovo qua
ci fingeremo stupiti

che non ci costa niente farlo sentire una star


con i suoi abra cadabra-cadabra abra
quanti bambini ha stupito
e ora i bambini sono piu' vecchi di lui
nemmeno un trucco e' cambiato che
che se il mondo cambia
qualche mondo non cambia mai
Fai comparire una donna
fai apparire una donna
faremo apparire una birra noi, se vuoi
fai comparire una donna
fai apparire una donna
che questa notte fara' meno feddo, vedrai
+-+-+-+-+-+-+-+-+-+-+-+-+-+-+-+-+-+-+-+-+-+-+-+-+-+-+-+-+-+-+-+-+~~~~~~~~~~~~
PANE AL PANE
~~~~~~~~~~~~
[riff] si ripete qua e la'
e|--4-5---4-5-----B|------5-----5-3-G|----------------D|----------------A|----------------E|----------------Accordi forniti da Giusy
Em
..E poi l'urlo parti'
G
e l'orecchio trovo',
Bm
pane al pane
e l'orecchio capi' anche se al prezzo di
sanguinare
E la bocca cerco'
e un'altra bocca trovo'
cuore a cuore
e li', piu' che baciarsi,
fu quasi un volersi mangiare
D
A
G
Bm
Chiaro, che piu' non si puo',
Em
pane al pane
E lo sputo salto'
e la faccia trovo'
pane al pane
e la faccia bucata sembro'
per un po' da buttare
E poi l'occhio parlo',
disse troppo, pero',
bene o male,
parlo' pure nascosto
nell'occhio d'un ottimo attore

Chiaro, che ti piaccia o no,


pane al pane
E lo specchio suono'
ora un blues, ora un pezzo solare
e fu quel ritornello fischiato
anche senza volere
pane al pane
+-+-+-+-+-+-+-+-+-+-+-+-+-+-+-+-+-+-+-+-+-+-+-+-+-+-+-+-+-+-+-+-+~~~~~~~~~~~~~~~~~
QUANDO TOCCA A TE
~~~~~~~~~~~~~~~~~
Accordi forniti da Skid
[NOTA: Secondo me ne manca uno nel ritornello. L'ho indicato con
? e secondo me potrebbe assomigliare ad un G oppure ad un C secondo
Andrea Zavonello. Tanto per cambiare la scelta sta a voi :) ]
[Intro]
e|--------------------------B|--------------------------G|--------------------------D|--9-7-5-------------------A|--------7-5--5-5-3--3-3---E|--------------------------[oppure, grazie a <bobo@netbusiness.it>]
e|-------------------------------B|-------------------------------G|-------------------------------D|--9-7-5--------2--------4------A|--------7-5---3---3---5---5----E|-------------------------------[TAB di Alessandro Marini]
[Intro/Riff]SOL
DO
RE
e:-----------------|-----------------|-----------------|----------------|
B:--------.---.----|-----------------|-----------------|----------------|
G:-4-----2---0----.|----.------------|-----------------|----------------| x
D:---------------2-|---0-----0-----0-|-2-----2-----2---|-4-----4-----4--| 2
A:-----------------|-----------------|-3---------3---3-|-5---------5---5|
E:-3---------------|-------3-----3---|-----------------|----------------|
1 . 2 . 3 . 4 .
1 . 2 . 3 . 4 .
1 . 2 . 3 . 4 .
1 . 2 . 3 . 4 .
[Strum]SOL
DO
RE
[Piano arrangiato per chitarra]
e:-3-----3-3-------|-----------------|-----------------|----------------|

B:-3-----3-3-------|-3---1---0-------|-1---------------|-----3-----3----|
G:-0-----0-0-------|-----------2-0-2-|-0---------------|---2-----2-----2| x
D:-0-----0-0-------|-----------------|-------2-2-------|-4-----4-----4--| 2
A:-2-----2-2-------|-----------------|-----------------|----------------|
E:-3-----3-3-------|-----------------|-----------------|----------------|
1 . 2 . 3 . 4 .
1 . 2 . 3 . 4 .
1 . 2 . 3 . 4 .
1 . 2 . 3 . 4 .
G
Per ogni giorno caduto dal cielo
C
D
e capitato bene o male a terra
G
con la tua guerra che non c'e' chi perde
C
D
ne' pero' chi vince
Per ogni amore sbagliato d'un pelo
oppure perso giocandolo a morra
o atteso in coda col tuo numerino
e sei il solo a non spingere
Per ogni ora passata in campo
e non ti sporchi neanche la maglietta
Ci vuol sudore e un minimo di cuore
se non vuoi lo zero a zero
per ogni passo strisciato, stanco
e, nel frattempo, tutto il resto e' fretta
e la scelta e' o resti fuori
o corri per davvero
C
D
C'e' chi corre e chi fa correre
C
D
e c'e' chi non lo sa
C
D
io so solo che, io so solo che
G
D
Quando tocca a te
Em
??
quando tocca a te
C
D
quando tocca a te
C
G G C D
tocca a te
Per ogni schiaffo avuto e da avere
e non ti restano piu' guance da offrire
e quella mano sempre troppo uguale
che non sai evitare
Per ogni storia andata a finire
nel modo che fa sempre sbadigliare

e in questa festa sei nell'angolino


e non vuoi disturbare
c'e' chi sceglie e chi fa scegliere
e c'e' chi non lo sa
io so solo che, io so solo che
Quando tocca a te
quando tocca a te
quando tocca a te
tocca a te
Quando tocca a te
quando tocca a te
quando tocca a te
tocca a te
+-+-+-+-+-+-+-+-+-+-+-+-+-+-+-+-+-+-+-+-+-+-+-+-+-+-+-+-+-+-+-+-+==================================================================
A CHE ORA E' LA FINE DEL MONDO (ALBUM)
==================================================================
~~~~~~~~~~~~~~~~~~~~~~~~~~~~~~~
A CHE ORA E' LA FINE DEL MONDO?
~~~~~~~~~~~~~~~~~~~~~~~~~~~~~~~
[Se vi interessa ho anche la versione originale dei R.E.M.:
*It's the end of the world as we know it*]
[NOTA: Purtroppo non ricordo piu' l'autore di questa TAB
che ho trovato in un angolo del mio HD. L'autore si faccia
pure avanti]
INTRO
2x STROFA1
STROFA2
E---|---------------------------|-0-0-------0-0-------|-------------B---|--------5-------5-3p2------|-0-2/3-2---0-2/3-2---|-------------G---|*-4p2-----4p2---------4p2-*|-1-2-----2-1-2-----2-|*------------D---|*-----2-------2-----------*|-2-2-------2-2-------|*------------A---|---------------------------|-2-0-------2-0-------|----7-5-4-2--E---|---------------------------|-0---------0---------|--0----------2x PRE RIT
INTRO 3 VOLTE
E-----------------|-----0-0-------|-----------------------------------B-------------/8--|-----0-2/3-2---|-----------------5-------5-8~~~----G-------------/7-*|-----2-2-----2-|-----------4p2-----4p2----------9--D----------------*|-5-4-2-2-------|---------------2-------2-----------A------0-7-5-4----|-5-4-1-0-------|-----------------------------------E---3^------------|-3-2-0---------|-----------------------------------INTRO 2 VOLTE
RIT
E-----------------------------|-------------|-------------------------B--------8~~~-8h10-------8~~~-|-------------|-------------------------G---p7-------------9p7--------|-------------|*-----------4-4-4--------D------9---------------9------|---------3-2-|*-2-2-------4-4-4-4-4-4--A-----------------------------|---------3-2-|--2-2-------2-2-2-4-4-4--E-----------------------------|---------5-4-|--0-0-2-4-5-------2-2-2--3x
STROFA 2 INTRO
RIT
E----------|----------------------|---------|-------|---------|------B----------|----14----14----14~~~-|---------|-------|---------|------G---------*|----------------------|---------|-------|---------|*------

D---7-9-7-*||/14----14----14------|---------|-------|---------|*-7---A---7-9-7--|----------------------|---------|-------|---------|--7---E---5-7-5--|----------------------|---------|-------|---------|--5---3x
E----------------------------|---------------------|------------------B----------------------------|------15----15----15-|------------------G---6-7-6h7p6---------------*|---------------------|------------------D-------------9-7-----------*|-7/16----16----16----|------------------Accordi di THE SUN
Tune:A
E:022100 E/G#:422100 A:x02220 F#m:233222 G:320033 B:x24442
E
E/G#
A
Che or'e', scusa ma che or'e'
E
E/G#
A
Che non lo posso perdere l'ultimo spettacolo
E
A
Fine del Mondo in Mondovisione, diretta da San Pietro per l'occasione
E
A
La borsa sale, i maroni no, Ferri batte il record di autogol
G
F#m
Le liste del Giudizio Universale saranno trasmesse dai telegiornali
E
A
A reti unificate e poi sulla pagina 666
E
A
Prima per su Canale 9 ci sara' il terzo Festival del dolore
E
A
Con la finale dei casi umani meno meno umani che mai
E
A
I puttanieri ci diano dentro, che la' di la' niente ciccia, niente
E
A
Niente ma tu giri pi leggero, bruciando le tue scorte di preservativi
G
F#m
Fiorin fiorello, l'amore e' bello se ci sei tu
E
B
F#m
A che ora e' la fine del Mondo?
E
B
F#m
A che ora e' la fine del Mondo?
E
B
F#m
A
A che ora e' la fine del Mondo, che rete e'?
E
A
Destra, sinistra, su, giu', centro, fine del Mondo con palle in giramento
E
A
Che chi e' fuori e' fuori e chi e' dentro e' dentro, e fuori TV non sei
niente
E
A
Ultimo appello per i merdaioli, finitevi la merce che di la' non funziona
E
A
Altro girone, altro regalo, niente caramelle per i leccaculo
G
F#m
OK, il girone e' giusto, OK!
E
B
F#m
A che ora e' la fine del Mondo?
E
B
F#m
A che ora e' la fine del Mondo?
E
B
F#m
A E
A E
A E
A

A che ora e' la fine del Mondo, che rete e'? Che ora e'? Che rete e'? Che
ora e'?
E
B
F#m
A che ora e' la fine del Mondo?
E
B
F#m
A che ora e' la fine del Mondo?
E
B
F#m
A
A che ora e' la fine del Mondo, che rete e'?
E
A
Forse la' di la' manchera' qualcosa: casa, chiesa, tele e cosa?
E
A
Serial killers, serial politici, morti in diretta, i migliori casi
clinici
G
F#m
Cazzi vostri in onda, OK!
E
B
F#m
A che ora e' la fine del Mondo?
E
B
F#m
A che ora e' la fine del Mondo?
E
B
F#m
A
A che ora e' la fine del Mondo, che rete e'?
+-+-+-+-+-+-+-+-+-+-+-+-+-+-+-+-+-+-+-+-+-+-+-+-+-+-+-+-+-+-+-+-+~~~~~~~~~~~~~~
MALE NON FARA'
~~~~~~~~~~~~~~
Trascrizione: Davide Pari <tigers@europe.com>
data: 24.09.1998
NOTA: Trascrivere, mettere insieme e portare su Internet questa canzone
mi e' costato tempo e fatica: non dimenticate di citare il mio nome.
Grazie. :)
Contribuite ad aumentare il numero di canzoni italiane disponibili
sulla rete e su OLGA!!!
Visitate e contribuite al newsgroup it.arti.musica.spartiti
D4: x00233
A4: 002230
[Intro]
A A4 D
[TAB di Alessandro Marini]
[Intro/Verso/Outro] (piano arr. per chitarra)
LA
LA
e:-----------------|-----------------|-----------------|----------------|
B:-----2-----------|---3-3-2-2-0-0---|-----2-----------|---3-3-2-2-0-0--|
G:-----2-----------|---------------2-|-----2-----------|---------------2|
D:(2)--------------|-----------------|-----------------|----------------|
A:-0-------------0-|-----------------|-0-------------0-|----------------|
E:-0-------0-3-0---|-----------------|---------0-3-0---|----------------|
1 . 2 . 3 . 4 .
1 . 2 . 3 . 4 .
1 . 2 . 3 . 4 .
1 . 2 . 3 . 4 .

REsus2
.
LA
e:-----------0-----|-----------0-----|-----------------|----------------|
B:-----3--------2--|-2-------3---2---|-----2-----------|---3-3-2-2-0-0--|
G:-----2-----------|-------2---------|-----2-----------|---------------0|
D:-0---------------|-----0-----------|-----------------|----------------|
A:-0---------------|-----------------|-0-------------0-|----------------|
E:-----------------|-----------------|---------0-3-0---|----------------|
1 . 2 . 3 . 4 .
1 . 2 . 3 . 4 .
1 . 2 . 3 . 4 .
1 . 2 . 3 . 4 .
A
A4
A
Hei bella non ti vedo bene
A4
A
qualsiasi cosa, non lasciarti andare
D
D4
A
A4
son qua se vuoi son qua abbiamo l'eta'________
A
E
ti posso offrire una bottiglia
D4
D
A
A4
e spalle larghe portaguai
A
E
ti posso offrire una bottiglia
G
e spalle larghe, spalle larghe, spalle larghe
[C.S.]
Sai bella e' tutto nel riuscire
a conservarsi un uscio per uscire
son qua se vuoi son qua la chiave ce l'hai
D4
e sara' gratis ma tu passa alla cassa
D
A
con l'amore che vuoi
E
G
non sara' gratis ma tu passa alla cassa e poi
cassa e poi, cassa e poi,
cassa e poi...
A
e appoggiati a me
A4
A
che se ci dovesse andar male
A4
D
D4
cadremo insieme
D
G
D
e insieme sapremo cadere
A
e appoggiati a me
A4
A
con la pesantezza del cuore
G
D
Dai deciditi che uohh
A
male non fara'

[solo]
| A4 A | D4 D | D4 D | G | D |
e
b
g
d
a
E

----------------------------------------------7--9--7--9--7--9--7--9--8--7------------------------------------------------9-7--------------------------------------------------------------------------------------------------------------------------------

-------------------------------------7--9--7--9--7--9--7--9--8--7-----------------------------------------------------------------------------------------------------------------------------------------------------------------------------------------------------------------------------9--7--------7--9--7------------------------9--7------------9--9--7--- alla via cos


------------------------------------------------------------------------Dai bella lascia giu' un sorriso
lo pago bene te lo pago a peso
ce l'hai lo so ce l'hai
ce l'hai pronto li'_____
ho tutto il tempo che ci serve
D4
D A
A4
io lo aspetto qui
A
E
ho tutto il tempo che ci serve
G
io l'aspetto io l'aspetto
io l'aspetto____
A
e appoggiati a me
A4
A
che se ci dovesse andar male
A4
D
D4
cadremo insieme
D
G
D
e insieme sapremo cadere
A
e appoggiati a me
A4
A
con la pesantezza del cuore
G
D
Dai deciditi che uohh
A
male non fara'
+-+-+-+-+-+-+-+-+-+-+-+-+-+-+-+-+-+-+-+-+-+-+-+-+-+-+-+-+-+-+-+-+~~~~~~~~~~~~~~~
CERCA NEL CUORE
~~~~~~~~~~~~~~~
Trascrizione: Davide Pari <letigri@usa.net>

Con correzioni fondamentali di THESUN


data: 23.09.1998
D4:
D2:
D5:
Am7/9:
C6:

x00233
x00230
x57775 (barre')
x57557
x02010 oppure 032210

ULTIMA NOTA: il ritornello e' a due voci. Io le ho trascritte tutte e


due, spero di non aver fatto troppo casino!
+-+-+-+-+-+-+-+-+-+-+-+-+-+-+-+-+-+-+-+-+-+-+-+-+-+-+-+-+-+-+-+-+-+-+[Intro] Chitarra acustica: Am Em G D4 D D2 (x2)
Am
Em
G
D4 D D2
Parlami, parlami, senza dire niente
Am
Em
G
D4 D D2
parlami dai, cerca nel cuore.
Am
Em
G
D4 D D2
Dimmelo, dimmelo, quello che ci serve,
Am
Em
G
D4 D D2
Am7/9
ora o mai piu', fatti mangiare qui
D5
fatti sentire
Am7/9
D5
fammi sentire sentirti
Em
D
G
D4 D D2
stringi di piu'
io sono qui
ne son quasi certo
Em
D
G
D4 D D2
stringi di piu' cosa ti costa?
io sono qui
Em
D
G
D4 D D2
stringi di piu'
io sono qui
te ne sei accorta?
Em
D
G
D4 D D2 Em D
stringi di piu'
io sono qui,
qui,
qui
[Solo: ci sono, credo, due chitarre: mentre la prima
suona il giro di accordi la seconda arpeggia cosi']
Am
Em G
D4 D D2
e:-------------------------B:-8-10-----8-10-----------G:------9-7------9-7-----0-- (x2)
D:-------------------9-7---A:-------------------------E:-------------------------[TAB alternativa di Alessandro Marini]
[Solo 1]LAm
MIm
SOL
RE
LAm
e:-----5-------|-------------|-----5-------|-------------|-----5------|
B:-8-----------|-----5-------|-8-----------|-------------|-8----------|
G:-------------|-7-----------|-------------|-7^6---------|------------|
D:-------------|-------------|-------------|-----9^7-----|------------|
A:-------------|-------------|-------------|---------9^7-|------------|

E:-------------|-------------|-------------|-------------|------------|
1 . 2 . 3 .
1 . 2 . 3 .
1 . 2 . 3 .
1 . 2 . 3 .
1 . 2 . 3
MIm
SOL
RE
e:-------------|-----5-------|-------------|
B:-----5-------|-8-----------|-------------|
G:-7-----------|-------------|-7^6---------|
D:-------------|-------------|-----9^7-----|
A:-------------|-------------|---------9^7-|
E:-------------|-------------|-------------|
1 . 2 . 3 .
1 . 2 . 3 .
1 . 2 . 3 .
Am
Em
G
D4 D D2
Parlami, parlami, che non spendi niente,
segnami qui senza rancore.
Cercami, scappami, fatti un po' sudare
toccami qui, proprio sul cuore qui,
fatti sentire
come dovessi morire
Em
D
G
D4 D D2
stringi di piu'
io sono qui
ne son quasi certo
Em
D
G
D4 D D2
stringi di piu' cosa ti costa?
io sono qui
Em
D
G
D4 D D2
stringi di piu'
io sono qui
te ne sei accorta?
Em
D
G
D4 D D2 Em D
C6
stringi di piu'
io sono qui,
qui,
qui
Ci son treni che
C6
ci son bocche da
C6
ci son facce che
C
G
D
e poi ci sei tu,
C
G
D
e ora ci sei tu

Em
G
non ripassano,
Em
G
ricordare,
Em
G
si confondono

[Solo]
Am
Em G
D4 D D2
e:------------------------------B:--12-10-----------------------G:--------12-11-------12-11-9-7-D:--------------12-14-----------A:------------------------------E:------------------------------Am
Em G
D4 D D2
e:------------------------------------B:--12-10-----------------------------G:--------12-11-------12-11-12-14b15r-D:--------------12-14-----------------A:------------------------------------E:-------------------------------------

[TAB alternativa di Alesandro Marini]


[Solo 2](parte I)
LAm
MIm
SOL
RE
LAm
MIm
e:-7-5---------|----------|---------|---------|-7-5---------|---------|
B:-----8-7-----|-5--------|-8--7----|-5-------|-----8-7-----|-5-------|
G:---------7---|----------|---------|----7----|---------7---|---------|
D:-------------|----------|---------|---------|-------------|---------|
A:-------------|----------|---------|---------|-------------|---------|
E:-------------|----------|---------|---------|-------------|---------|
1 . 2 . 3 .
1 2 3
1 2 3
1 2 3
1 . 2 . 3 .
1 2 3
(parte II, molto approssimativa)
SOL
RE
LAm
MIm
SOL
e:---------|------------||-------------|-------------|-------------|
B:-8--7----|-8-/10------||-------------|-0---3---0---|-------------|
G:---------|------------||-0-2-2---2---|-------------|-2-0-0---0---|
D:---------|------------||-------------|-------------|-------------|
A:---------|------------||-------------|-------------|-------------|
E:---------|------------||-------------|-------------|-------------|
1 2 3
1
2
3
1 . 2 . 3 .
1 . 2 . 3 .
1 . 2 . 3 .
RE
LAm
MIm
SOL
RE
e:-------------|-------------|-------------|-4---3---2---|-0-----------|
B:-------------|-------------|-0---3---5---|-------------|-------------|
G:-------------|-0-2-2---2---|-------------|-------------|-------------|
D:-4---0-------|-------------|-------------|-------------|-------------|
A:-------------|-------------|-------------|-------------|-------------|
E:-------------|-------------|-------------|-------------|-------------|
1 . 2 . 3 .
1 . 2 . 3 .
1 . 2 . 3 .
1 . 2 . 3 .
1 . 2 . 3 .
Am Em G D4 D D2
Am Em G D4 D D2
Am7/9
D5
fatti sentire
Am7/9
D5
fammi sentire sentirti
Em
stringi
Em
stringi
Em
stringi
io sono
Em
stringi
io sono
Em
stringi
io sono
Em
stringi
io sono
Em
stringi
io sono
Em

D
G D4 D D2
di piu'
D
G
D4 D D2
di piu' cosa ti costa?
D
G D4 D D2
di piu'
qui
D
G
D4 D D2
di piu'
qui
D
G
D4 D D2
di piu'
qui
ne son quasi certo
D
G
D4 D D2
di piu' cosa ti costa?
qui
D
G
D4 D D2
di piu'
qui
te ne sei accorta?
D
G
D4 D D2 Em D

stringi di piu'
io sono qui,

qui,

qui

Am
Em
G
D4 D D2
Parlami, parlami, senza dire niente
Am
Em
G
D
parlami dai, cerca nel cuore.
^
|---- Rallentando
+-+-+-+-+-+-+-+-+-+-+-+-+-+-+-+-+-+-+-+-+-+-+-+-+-+-+-+-+-+-+-+-+~~~~~~~~~~
FUORITEMPO
~~~~~~~~~~
Ligabue/Rats
A4: x02230
[NOTA: questa trascrizione e' tratta dell'album dei Rats *Indiani
padani*,
la versione fatta dal Liga e' un tono piu' bassa. Io preferisco questa
perche' faccio meno fatica a passare da A ad A4 che da G a G4 :).
D'altronde qualcuno potrebbe trovare piu' comodo passare da G4 a C usando
le seguenti posizioni:
G: 320003
G4: 320013
C: 032013

AMooom <---|Sono le iniziali dei nomi delle dita!


AMooIm <---|Anulare
oAMoIm <---|Medio
|Indice
|mignolo ]

[Intro]
A A4 D
[TAB di Alessandro Marini]
[NB: e' nella tonalita' originale!]
[Intro] |SOL 4 |SOL
4 |DO
|DO

[Riff]
(1ma SOL, 2nda DO)
e:----------------|-----------------|-----------------|-----------------|
B:0^1-------0----/|\--------------0-|-0^1-------0----/|\--------------0-|
G:--------------2-|-2-----0-----2---|---------------2-|-2-----0-----2---|
D:----------------|-----------------|-----------------|-----------------|
A:----------------|-----------------|-----------------|-----------------|
E:----------------|-----------------|-----------------|-----------------|
1 . 2 . 3 . 4 .
1 . 2 . 3 . 4 .
1 . 2 . 3 . 4 .
1 . 2 . 3 . 4 .
A
A4
E c'era tanta gente che
D
sembrava li' solo per me
tutti ai blocchi di partenza
lo start chi lo da'?
A
E poi...
il cuore che bruciava
A4

e poi correvo come un matto


D
tutti gli altri eran davanti,
cos'e' che non va?
F#m
D
Brutta storia dico corro corro
E
e resto sempre in fondo
F#m
D
sono fuori allenamento
E
oppure e' allenato il mondo?
D
Certa gente...
riesce solo a dire...
A
Sei fuoritempo
A4
Sei fuoritempo
D
sei come un debito scaduto
A
sei fuoritempo
A4
sei fuoritempo
D
sei quello che ci chiede
sempre aiuto
[intermezzo]
Fu cosi' che lasciai la gara
e resto li'
per andare con il passo mio
stan fischiando... stan fischiando
va bene cosi'
Per di qui per mesi e per chilometri
finche' qualcuno dice:
*Tu dov'e' che stai andando,
che siam tutti qui?*
Io non vado da nessuna parte
io sto andando e basta
dicono che se mi beccano
mi tagliano la cresta
D
Certa gente...
pensa solo a dire...
A
Sei fuoritempo
A4
Sei fuoritempo
D
arrivi e parti troppo presto
A
sei fuoritempo
A4
sei fuoritempo
D
Vogliamo i suonatori

al loro posto
F#m
D
E
Uoh uoh oh uoh oh oh
fatti per correre
F#m
D
E
Uoh uoh oh uoh oh oh
o per rallentare
F#m
D
E
Uoh uoh oh uoh oh oh
C'e' anche chi ha deciso
D
di camminare
al passo che gli pare
[Intermezzo strumentale]
A A4 D
A
Sei fuoritempo
A4
Sei fuoritempo
D
sei come un debito scaduto
A
sei fuoritempo
A4
sei fuoritempo
D
sei quello che ci chiede
sempre aiuto
+-+-+-+-+-+-+-+-+-+-+-+-+-+-+-+-+-+-+-+-+-+-+-+-+-+-+-+-+-+-+-+-+~~~~~~~~~~~~~
IL GRINGO '94
~~~~~~~~~~~~~
[Facile, tutta uguale: G F C]
[PS: Non e' vero! Guardate *Il gringo '91* per avere quelli
giusti.]
[Intro] |G |F C|
[TAB di Alessandro Marini]
[Intro]SOL
(tap)
FA
DO
e:--------------.--|-x-x-x-x-|-----------------|---------|
B:---------6---5---|---------|-----------------|-------8-|
G:-5---7-----7-----|---------|--------------.--|---------| X 2
D:-----------------|---------|-5---7---7-7-5---|---------|
A:-----------------|---------|-----------------|---------|
E:-----------------|---------|-----------------|---------|
1 . 2 . 3 . 4 .
1 2 3 4
1 . 2 . 3 . 4 .
1 2 3 4
[Riff]SOL
FA
DO
e:-----------------|---------------|-----------------|-----------------|
B:-----------------|---------------|-----------------|-----------------|
G:-5^7-7-5^7-7-5^7-|-5-4-4-4^4-----|-3^5-5-3^5-5-3^5-|-----5-----5-----|X
D:-----------------|---------------|-----------------|-5-7---5-7---5-7-|2
A:-----------------|---------------|-----------------|-----------------|
E:-----------------|---------------|-----------------|-----------------|
1 . 2 . 3 . 4 .
1 . 2 . 3 4
1 . 2 . 3 . 4 .
1 . 2 . 3 . 4 .

G
F
C
Il Gringo un giorno passo' col cappello
G
F
C
sugli occhi ed un sigaro spento appeso.
Io lo guardavo e poi senza la Colt
mi sentivo piu' nudo che indifeso.
Dura la vita in pianura col Gringo
che conosce una legge sola: la sua
Il Gringo era riflessi,
speroni e dovere e lampi e grandi palle
E nemici tutti bavosi
e ostinati a restarsene
dentro la propria pelle
F
Il nostro cuore non e' da seppellire
G
ne' a Wounded Knee,
ne' in nessun altro dove
F
G
Il nostro cuore non e' da regolare
Attenti al Gringo di pattugliamento:
ci si mette lui di corve'e
Il Gringo che va fino in fondo:
sa che cos'e' meglio per te
Il Gringo raschia tutto il fango,
raschia tutti fin che ce n'e'
Il Gringo quasi quasi spengo,
tanto lo sappiamo gia' com'e'.
Il Gringo si accende il fuoco un po'
per i coyotes ma piu' che altro per le artriti
ha avuto un giorno pesante
fra nuovi bersagli e taglie ed ex banditi
Il nostro cuore non e' da seppellire
ne' a Wounded Knee,
ne' in nessun altro dove
Il nostro cuore non e' da regolare.
Attenti al Gringo di pattugliamento:
ci si mette lui di corvee
il Gringo che va fino in fondo:
sa che cos'e' meglio per te
Il Gringo raschia tutto il fango,
raschia tutto finche' ce n'e'
Il Gringo quasi quasi spengo,
tanto lo sappiamo gia' com'e'.
Attenti al Gringo di pattugliamento:
ci si mette lui di corvee
il Gringo che va fino in fondo:
sa che cos'e' meglio per te
Dura la vita in pianura col Gringo
che conosce una legge sola: la sua
Dura la vita in riserva col Gringo
che ripete che la tua legge e' merda.
Cuore regolare: non e' da seppellire

+-+-+-+-+-+-+-+-+-+-+-+-+-+-+-+-+-+-+-+-+-+-+-+-+-+-+-+-+-+-+-+-+~~~~~~~~~~~~~
IL GRINGO '91
~~~~~~~~~~~~~
[Testo e accordi forniti da Alessandro Marini]
[NdT: In questa trascrizione non sempre e' messo il DO dopo il FA
come nell'intro. A me sembra che ci stia bene sempre, pero'...
fate voi, come al solito! :) ]
[Intro]

|SOL

|FA

|DO

SOL
FA
Il gringo un bel giorno passo' col cappello
SOL
FA
DO
sugli occhi ed un sigaro spento appeso.
SOL
FA
Io lo guardavo e poi senza una Colt
SOL
FA
DO
mi sentivo piu' nudo che indifeso, indifeso
Il Gringo era riflessi, speroni
e silenzio e lampi e grandi spalle
E nemici tutti bavosi e nessuno
dei quali si salvava mai la pelle
FA
In certi film era amico degli indiani
SOL
erano film che sembravano un po' strani
FA
SOL_| SOL_| SOL_|
in certi film era amico degli indiani
SOL
[Rit] Ma guarda il gringo, quello sembra il gringo
FA
DO
si' ma che dentiera che ha
SOL
Il gringo, quello e' proprio il gringo
FA
DO
si' pero' che rughe che ha
SOL
Il Gringo tempo e fara' meglio
FA
DO
e ora cosa si credera'
SOL
Il Gringo sembra uno sbadiglio
FA
DO
e comunque non cambiera'
[Riff]

|SOL

|FA

|DO

Il Gringo si accende un fuoco un po' per i


coyotes ma piu' che altro per le artriti
ha avuto un giorno pesante fra nuovi
bersagli e taglie ed ex banditi
In certi film era amico degli indiani
erano film che sembravano un po' strani
in certi film era amico degli indiani

[Rit] Ma guarda il gringo, quello sembra il gringo


si' ma che dentiera che ha
Il gringo, quello e' proprio il gringo
si' pero' che rughe che ha
Il Gringo tempo e fara' meglio
e ora cosa si credera'
Il Gringo sembra uno sbadiglio
e comunque non cambiera'
Ma guarda il gringo, quello sembra il gringo
si' ma che dentiera che ha
Il gringo, quello e' proprio il gringo
si' pero' che rughe che ha
Il Gringo tempo e fara' meglio
e ora cosa si credera'
Il Gringo sembra uno sbadiglio
e comunque non cambiera'
[Outro] SOL
+-+-+-+-+-+-+-+-+-+-+-+-+-+-+-+-+-+-+-+-+-+-+-+-+-+-+-+-+-+-+-+-+~~~~~~~~~~~~~~~~~~~~~~~~~~~~
L'HAN DETTO ANCHE GLI STONES
~~~~~~~~~~~~~~~~~~~~~~~~~~~~
Grazie a D'Ambros per la trascrizione
Lam
Tutto quanto detto, tutto quanto scritto
Sol
Re
Metti sotto quando vieni a letto
Canta e cambia il mondo tu che sei stupendo
Sol
Re
Lam
che io insisto a fare quel che posso
Re
Chi l'ha detto che sei solo quello che sai?
Sol
Re Lam
Ah ah ah ah
ti manca un pezzo!
So che so stonare, so di fare andare
Sol Re
LaSol
Taca banda: vienimi a trovare
Re
Do
Sentilo! Suonalo! Ballaci sopra
Lam
Re
Solo rock'n'roll si vabbe' ma che gusto
Sol
Re
Lam
L'han detto anche gli Stones non e' mai troppo presto
Re
Solo rock'n'roll solo il fondo del rusco
Sol
Re
Lam
L'han detto anche gli Stones solo quello che quello che e'
Tieni botta, Gino, sposta il tuo destino
te l'han dato quasi chiavi in mano
Ma la direzione non e' in una canzone
e anche adesso faccio quel che posso
Chi l'ha detto che sei solo quello che vuoi?
Hai perso un pezzo!

Io c'ho l'ampli acceso e tu le tue pretese


giuste o no io ballo le mie cose
Prenditi! Mollami o ballaci sopra
Solo rock'n'roll si vabbe' ma che gusto
L'han detto anche gli Stones non e' mai troppo presto
Solo rock'n'roll perdonate se insisto
MiL'han detto anche gli Stones solo quello che quello che...
+-+-+-+-+-+-+-+-+-+-+-+-+-+-+-+-+-+-+-+-+-+-+-+-+-+-+-+-+-+-+-+-+~~~~~~~~~~~~~~~~~~~~~~~~~~~~~~
URLANDO CONTRO IL CIELO (LIVE)
~~~~~~~~~~~~~~~~~~~~~~~~~~~~~~
C'e' la trascrizione di studio con molti pezzi tratti anche
dal live su *Lambrusco, coltelli rose & popcorn*
==================================================================
ALBUM BUON COMPLEANNO ELVIS
==================================================================
Words and music: Ligabue
Trascrizioni: Davide Pari <letigri@usa.net>
Tranne:
_*Leggero*, opera di: simonep@sintec.it
_L'intro di *Viva!* liberamente ispirata ad una trascrizione di
Toninelli Fabio <TONINELLI@CRE.ENEL.IT>
_l'assolo di *Certe notti*, opera di Giampaolo Molinari
<giampa64@iol.it> e di Stefano Rossi <stefanor@geocities.com>
_gli assoli di *Seduti in riva al fosso*, opera di Red
stefanor@geocities.com
e di MarcoP <notting65@hotmail.com>
_Le TAB di non dovete badare al cantante, opera di Simone
<simonep@sintec.it>
_L'intro di *Vivo, morto o x*, opera di Red
Canzoni incluse:
1. Vivo morto o x (CRD e TAB intro)
2. Seduti in riva al fosso (CRD e TAB quasi completa)
3. Buon compleanno Elvis (CRD)
4. La forza della banda (CRD e TAB)
5. Hai un momento Dio? (CRD e alcune TAB)
6. Rane a Rubiera blues (TAB molto parziale)
7. Certe notti (CRD e TAB completa! BTAB parziale)
8. Viva! (CRD e un po' di TAB)
9. I *ragazzi* sono in giro (CRD)
10. Quella che non sei (CRD e TAB)
11. Non dovete badare al cantante (CRD e TAB)
12. Un figlio di nome Elvis (CRD)
13. Il cielo e' vuoto o il cielo e' pieno (CRD e TAB)
14. Leggero (CRD)
-----------------------------------------------------------------Inoltre alcuni accordi poco comuni usati sono elencati di seguito
con accanto la diteggiatura:
(chord voicings)

D4
D9
Em9
F7+
F9
G6
A4
A9
Bm4
Bb9

x00233
x00230
022002
003210
003213
320030 opp. 320000
002230
002200
xx4430
113311

-----------------------------------------------------------------NOTA: Trascrivere, mettere insieme e portare su Internet queste


canzoni mi e' costato tempo e fatica: se usate tutto o parte di
questo canzoniere, non dimenticate di citare il mio nome. Grazie.
:))))
Contribuite ad aumentare il numero di canzoni italiane disponibili
sulla rete e su OLGA!!!
Visitate e contribuite al newsgroup it.arti.musica.spartiti
---Ovviamente correzioni e commenti sono e saranno sempre i
benvenuti.
(Comments and corrections welcome.)
~~~~~~~~~~~~~~
VIVO MORTO O X
~~~~~~~~~~~~~~
[Intro]: A

G D

TAB opera di Red


e|---------------|---------------|
B|---------------|---------------|
G|-----------7-6-|---------------|
D|---7---7-------|---7---7---0-6-|
A|-0---0---0-----|-0---0---0-----|
E|---------------|---------------|
e|---------------|-----------------|
B|---------------|-----------------|
G|-----------7-6-|-------------6tr-|
D|---7---7-------|---0-4p0-7p0-----|
A|-0---0---0-----|-0---------------|
E|---------------|-----------------|
TAB alternativa, grazie a Fulvio:
e|---------------|---------------|
B|---------------|---------------|
G|-----------7-6-|---------------|
D|---7---7-------|---7---7---6-5-|
A|-0---0---0-----|-0---0---0-----|
E|---------------|---------------|
e|---------------|-----------------|
B|---------------|-----------------|

G|-----------7-6-|-----------------|
D|---7---7-------|---0-4-0-7-0-11--|
A|-0---0---0-----|-0---------------|
E|---------------|-----------------|
e|---------------|---------------|
B|---------------|---------------|
G|-----------7-6-|---------------|
D|---7---7-------|---7---7---6-5-|
A|-0---0---0-----|-0---0---0-----|
E|---------------|---------------|
e|---------------|-----------------|
B|---------------|-----------------|
G|-----------7-6-|-------------6---|
D|---7---7-------|---0-4-0-7-0-----|
A|-0---0---0-----|-0---------------|
E|---------------|-----------------|

e|------------2-|------------2-|
B|-0-2--x-x-x-3-|-0-2--------3-|
G|-0-2--x-x-x-2-|-0-2--------2-|
D|-0-2--x-x-x-0-|-0-2--------0-|
A|---0--x-x-x---|---0--0-3-0---|
E|--------------|--------------|
e|------------2-|-3------2-----|
B|-0-2--x-x-x-3-|-0------3-----|
G|-0-2--x-x-x-2-|-0------2-----|
D|-0-2--x-x-x-0-|-0------0-----|
A|---0--x-x-x---|-2------------|
E|--------------|-3------------|
--------------------------e|-------2-----|------0------0-|
B|-----3---3---|---------------|
G|---2-------2-|---2------4----|
D|-0-----------|-3------5------|
A|-------------|---------------|
E|-------------|---------------|
Ah, ah, alla faccia di chi..
e|-------------|---------------|
B|-------------|---------------|
G|---2-0-------|---------------|
D|-2-----2-0---|-2-------------|
A|-0-----------|-0--3-2-0------|
E|-------------|----------3----|
ics
ics
A
A
Nato da un sospiro o da un temporale
G
l'ostetrica ti batte non ti chiede *come va?*
A

Beh, benvenuto qui, fra luce e confusione


G
e nessuno che t'ha chiesto se volevi,
D
A
se volevi uscir di la' la'
T'han detto cos'e' bene
e t'han spiegato il male.
*Si sappia regolare:
prima o poi c'e' l'aldila'*.
Guardare e non toccare
guardere ed ingoiare
e sei un po' nervoso
ed un motivo ci sara'.
[Rit]
A
Vivo morto o ics
Bm
vivo morto o ics
D
vivo morto, vivo morto
G
vivo morto o ics.
A
Fa una croce qui,
Bm
firmati cosi'
D
vivo morto, vivo morto
G
vivo morto o ics
[accordi C.S.]
E te lo porti dentro
quel vecchio professore
che ti ha rubato tempo
con la sua mediocrita'.
E puntano al tuo tempo
e a alcuni sissignore
e perfino un giuramento
e un anno di tua proprieta'
[Rit]
A
Vivo morto o ics
Bm
vivo morto o ics
D
vivo morto, vivo morto
G
vivo morto o ics.
A
Siamo sempre qui,
Bm
come cosa chi?
D
vivo morto, vivo morto

G
vivo morto o ics
D
F
Aaa-lla faccia
G
A
A
di chi t'ha visto ics ics
D
F
Aaa-lla faccia
G
A A
di chi ti pensa
ics
D
F
Aaa-lla faccia
G
di chi ti vuole...
T'han detto ce c'e' posto
per chi sa stare a posto
il posto tele accesa
e la casetta in Canada.
Il sabato la spesa
e il giorno dopo in chiesa
e sei un po' nervoso
ed un motivo ci sara'
A
Vivo morto o ics
Bm
vivo morto o ics
D
vivo morto, vivo morto
G
vivo morto o ics.
A
Fa una croce qui,
Bm
firmati cosi'
D
vivo morto, vivo morto
G
vivo morto o ics
D
F
Aaa-lla faccia
G
A
A
di chi t'ha visto ics ics
D
F
Aaa-lla faccia
G
A A
di chi ti vuole
ics
D
F
Aaa-lla faccia
G
di chi ti pensa...
A
La la la la la la la la le ro
Bm4
La la la la la la la la le ro

|
|
|
|

D
|-->[x4]
La la la la la la la la le ro |
G
|
Vivo morto o ics
|
[finale]
A
ics
+-+-+-+-+-+-+-+-+-+-+-+-+-+-+-+-+-+-+-+-+-+-+-+-+-+-+-+-+-+-+-+-+~~~~~~~~~~~~~~~~~~~~~~~
SEDUTO IN RIVA AL FOSSO
~~~~~~~~~~~~~~~~~~~~~~~
+---------------[ INIZIO VERSIONE ALTERNATIVA

]----------------+

[Ecco ancora un'altra versione di questa canzone. A voi


scegliere la migliore. Io personalmente preferisco quella di Red]
(Trascrizione di MarcoP
notting65@hotmail.com)
Solo 1 (Chitarra Pulita)
E|------------------------8---6-5---5------------------------------5\3------|
B|---------------8-8--3/5---5-----8---5^----8------------8------------------|
G|-----------7H9-------------------------5--7^-7-5---5-7-7^-7--3/5----------|
D|7H10-10-10---------------------------------------7------------------3/5\3-|
A|--------------------------------------------------------------------------|
E|--------------------------------------------------------------------------|
Solo 2 (Chitarra Distorta)
E|------------------7-7H8-7--------------------------------------------------------B|----8---10-----10---------10-8--/10-8--------------------------------------------G|7/9---9-----/9------------------------9-------------7H9P7----7-------------------D|--------------------------------------------7H9H10--------10---109H10P9---------7A|-----------------------------------------/7-----------------------------10-10-7--E|---------------------------------------------------------------------------------E|----------------------------------------------------------------------------------B|----------------------------------------------------------------5P3P0-------------G|-----12------12-9-7------------9------9------9------9------9---------5P4P0-2P0---0D|9H10----9H10--------10-9--9H10---9H10---9H10---9H10---9H10---9-----------------2---

A|----------------------------------------------------------------------------------E|----------------------------------------------------------------------------------E|---------------------7-7H8-7--------------|
B|----1-3-1-3^------10---------10-8-10-8----|
G|0H2------------/9-----------------7--7-9\-|
D|------------------------------------------|
A|------------------------------------------|
E|------------------------------------------|
Solo 3 (Chitarra Distorta)
E|-------------------------------------------------------------------------------B|------------------------------------8^8P5--------------------------------------G|---------------------7-5--------5-7-------7^7P5---7---5------------------------D|3-3-3-3-3-3-3----2/5-----5--5-7-----------------7---7----7-5-------------------A|3-3-3-3-3-3-3--3---------------------------------------------7-6-5--5/7-7-7/8-8E|1-1-1-1-1-1-1------------------------------------------------------8-----------|---4 Volte---| |-4 Volte-|
E|----------------------------------------------15--------------8-------8----------B|---------------13-15-15^15P13----15----13--15^---^15-13---------10^-----10^10P---G|------------------------------14----14-----------------------------------------10D|---------------------------------------------------------------------------------A|8/10-10-10/12--------------------------------------------------------------------E|---------------------------------------------------------------------------------|------------------------Finale----------------------|
E|------8--10^---------------------------------------------------------B|---------------------------------------------------------------------G|8tr10------------------------------3---3-2------------------------2-0D|----------------------2-5----------3-3-3-3------2-5---------------0-2A|------------------3-5---------2-5--1-3-3-3--3-5---------2-5-1-0-----3E|--------------------------3-5--------1--------------3-5---------3----Nella seconda e terza strofa, sopra gli accordi Am G Em F Bb,
la chit. solista suona questo (Chit. poco distorta):
E|----8---8-5-7---7\5-3-3---3----1--6B|3/5---5-------3---------5---5--1--6G|-------------------------------2--7D|-------------------------------3--8A|-------------------------------3--8E|-------------------------------1--6Legenda:

/ e \ : Slide
H : Hammer On
P : Pull Off
^ : Bending
tr: Tremolo
+-----------------[ FINE VERSIONE ALTERNATIVA

]-----------------+

[Intro]
[ci sono (credo) due chitarre: una suona gli accordi mentre
l'altra, con un leggero overdrive, arpeggia alcune note qua e la']
C
G
Bb9 F
e:-0----------3--|--1----1---------------|
B:-1----------0--|--1----1---------------|
G:-0-------0--0--|--3----2----2-2-3-2-0--|
D:-2---0h2----0--|--3----3--3------------|
A:-3-3--------2--|--1----3---------------|
E:-0----------3--|--1----1---------------|
[poi prosegue sugli accordi]
C G Bb9 F
C
Ho parcheggiato e camminato
G
Bb9
F
non so quanto non so dove sono qua
C
ma so soltanto che si sente
G
un buon profumo un bel silenzio
Bb9
F
e l'acqua che va
C
lontano da me
G
lontano da noi
Bb9
lontano dalla giostra
F
che non si ferma mai
C
e c'ho il biglietto si'
G
ma questa corsa la vorrei
Bb9
F
lasciare fare a voi
Am
G
solo a voi
Em7
F
la lascio fare a voi
Bb9
C
che io sto bene qui
G
Bb9 F
seduto in riva al fosso
C
io sto bene qui
G
Bb9 F
seduto in riva al fosso

[Assolo di chitarra 1]
C G Bb9 F (x2)
[La TAB che segue e' opera di Red: stefanor@geocities.com]
NB: Red ha indicato il bending con ^ e il tremolo con tr
-------------------8---|----------------------|---------------------8-------8-|-10^-10-8-10----------|-------------5-5-7/9---8h9-----|-------------8h9------|---------5h7-------------------|-----------------10tr-|-------------------------------|----------------------|-------------------------------|----------------------|-----------------------------|---5\3-------|
-8^-8---------8^-----|-------------|
-7^-7-5---5-7-7^-7-3/|5------3/5\3-|
--------7------------|-------------|
---------------------|-------------|
---------------------|-------------|
C
O e' il riflesso della luna
G
Bb9
F
o sei proprio bella se vuoi siediti!
C
Hai parcheggiato e camminato
G
non sai quanto non sai dove
Bb9
F
sei ma sei qui
C
lontana da te
G
lontana da voi
Bb9
lontana da uno specchio
F
che non dice chi sei
C
se sotto il cielo c'e' qualcosa
G
Bb9
di speciale passera' di qui
F
prima o poi
Am
G
prima o poi
Em7
F
e comunque tu lo sai
Bb9
C
che si sta bene qui
G
Bb9
seduti in riva al fosso
F
C
stiamo bene qui
G
Bb9 F
seduti in riva al fosso.
[Assolo di chitarra 2]

Am G Em F (x4)
[Anche questa TAB e' opera di Red stefanor@geocities.com]
-----------------|---------5-7-7^-7-5-----|-----------------------8-----|-10^tr-5-5-5----5---8tr-|-/10-6^------3-3-2-/9-----9--|-12^--------------------|--------9\---3-3-3--12-14-12-|------------------------|-------------1-1-3-----------|------------------------|-----------------1-----------|------------------------|-----------------------|-----------------------------|-----3-----3------------|-----------------------------|-------------5
---2-4-5tr-|-7h9p7\5-7-5\4h5p4p0-----2tr-|-4h5---4h5--------------|---------------------5p0-----|--------------3---------|-----------------------------|------------------------|-----------------------------|--------------------|------------------------------------|------5-7^-3-1p0-|-5-3-0------------------------------|----5------------|-------5-4-0-2-0------------5-7---7-|-7^--------------|-----------------2-0-5tr-/7-----7---|-----------------|------------------------------------|-----------------|------------------------------------|-----------7-5-----|-8^----|
-----8tr-|-8^--5-|
---------|-------|
---------|-------|
---------|-------|
---------|-------|
C
Sono arrivati con la guida
G
e hanno apparecchiato
Bb9
F
per il loro pic-nic
C
con sedie, tavolini,
G
la TV i telefonini
Bb9
e le facce di chi va
C
lontano da chi?
G
Lontano da che?
Bb9
Lontano per sentito dire
F
senza un perche'
C
se vuoi restare
G
resta pure ho da fare
Bb9
F
e non mi viene in mente cos'e'
Am
G

ma lo so che...
F
io lo so com'e'
Bb9
C
che state bene li'
G
Bb9 F
seduti in riva al fosso
C
state bene li'
G
Bb9 F
seduti in riva al fosso
Em

[solo chitarra]
C G Bb9 F
[outro]
C
G
Bb9 F
State bene li', state bene li', state bene li'
C
G
Bb9 F Gm Dm C
dico state bene li', state bene li', state bene li'
+-+-+-+-+-+-+-+-+-+-+-+-+-+-+-+-+-+-+-+-+-+-+-+-+-+-+-+-+-+-+-+-+~~~~~~~~~~~~~~~~~~~~~
BUON COMPLEANNO ELVIS
~~~~~~~~~~~~~~~~~~~~~
[Intro]
[TAB di Stefano Bologna]
e-------------------------------------------------------------------B------------------------2---0----------------------3---2---0--2--0-G-----2---4-----------2---------0------------2---4------------------D-2-2------------2--2------------------2--2-------------------------A-------------------------------------------------------------------E-------------------------------------------------------------------[Altra TAB di Andrea Zanovello]
~
~
------------------------------------------------------------------------------------2----------------------5---3---2-3-2--------2---4-------2------4-2-------2----4----------------------2-2----2-----2-2---2----------2-2---2------2---2---2----------------------------------------------------------------------------------------------------------------------------------(A me riesce pi facile cos perche' posso tenere un barr sul II tasto)
E
D
Siamo pronti per altri giri
A
Bm4
porta tutto il tuo guardaroba
E
D
che siamo pronti per stare fuori
A
Bm4
se stare dentro vuol dire star con voi.
E
D
Siamo pronti per noi sorella
A
Bm4
Reggio, Liverpool, Memphis, Nashville
E
D

e Radio Clash da casello a casello


A
Bm
in questa gita di fine secolo.
E
D
A
La la la la la la la la la la
Bm4
e' un mondo che non va a tempo
E
D
A
La la la la la la la la la la
A
Bm
tienilo tu tienilo tu tieni che
E
D
c'e' ancora bumba per noi.
A
Bm
Buon compleanno Elvis!
E
D
Guarda che sogno che avrei
A
Bm
mi presti gli occhiali?
E
D
Che qua c'e' ancora posto per noi
A
Bm
E
non ci rompete il tempo mai
E
D
Io son pronto per cio' che sono
A
Bm4
porta pure il tuo specchio buono
E
D
che poi non ce n'e' per nessuno
A
Bm
non costera' mai niente crederci.
E
D
Se sei pronta son qua, sorella
A
Bm4
che c'e' chi suona la vita a palla
E
D
ed Elvis passa col mondo al collo
A
Bm
in questa notte di fine secolo
E
D
A
La la la la la la la la la la
Bm4
e' un mondo che non hai scelto
E
D
A
La la la la la la la la la la
A
il suono pero' il suono pero'...
B
il suono si' il suono pero'...
B
il suono pero'... il suono...
E
D
c'e' ancora bumba per noi.
A
Bm
Buon compleanno Elvis!
E
D
Guarda che sogno che avrei
A
Bm

mi presti le scarpe?
E
D
Che qua c'e' ancora posto per noi
A
Bm
E
non ci rompete il tempo mai
E
D
A
Bm
Di' la verita': cosa c'e' li' sotto?
E
D
A
Di' la verita': cosa porti dentro?
Bm
Cosa porti con te?
E
D
A
Di' la verita': cosa tieni stretto?
Bm
Cosa c'e'? Cosa c'e'?
E
D
A
B
Di' la verita': ti basta tutto questo?
E
D
Siamo pronti per non cambiare
A
Bm
al di la' di chi c'ha ragione.
E
D
Pronti per un Be bop a lula
A
B
in questo giro di fine secolo.
E
D
A
La la la la la la la la la la
B
e' un mondo che non fa sconti
E
D
La la la la la la la la la la.
A
Pagalo tu, pagalo tu, pagalo.
B
Pagalo tu, pagalo tu, paga che
E
D
c'e' ancora bumba per noi.
A
Bm
Buon compleanno Elvis!
E
D
Guarda che sogno che avrei
A
Bm
mi presti la vita?
E
D
Che qua c'e' ancora posto per noi
A
Bm
E
non ci rompete il tempo mai
[finale]
E D A Bm fine in E
+-+-+-+-+-+-+-+-+-+-+-+-+-+-+-+-+-+-+-+-+-+-+-+-+-+-+-+-+-+-+-+-+~~~~~~~~~~~~~~~~~~~~
LA FORZA DELLA BANDA
~~~~~~~~~~~~~~~~~~~~
[Intro (ripetuta per tutta la canzone con piccole variazioni)]
(con distorsione)

A
e:-----------B:-----------G:---------0-- (x3)
D:-----0h2---- (lasciar suonare l'ultima nota)
A:-0h2-------E:-----------A
Em
G
D
e:-----------------------------------------------B:-----------------------------------------------G:---------0-----0-2p0-------------0-----0-2p0---- (x4)
D:-----0h2-----2--------2------0h2-----2--------2A:-0h2---------------------0h2-------------------E:-----------------------------------------------A
Em
G
D
e:---------------------------------------------B:---------------------------------------------G:---------0-----0-2p0-------------------------D:-----0h2-----2--------2--2-0-------2-0-------A:-0h2-------------------------2-0-------2-0---E:---------------------------------3---------3-A
Em
La forza della banda
G
D
per forza viene fuori
A
Em
andando dietro il groove
G
D
ballando in mezzo ai nostri orrori
A
Em
noi veniamo da qui dietro
G
D
e andiamo chi lo sa
Em
D
G A
facendo le campagne,
G6
G
facendo tutte le citta'.
A
Em
Nel nome del tuo mondo,
G
D
nel nome di chi sei
A
Em
la banda e' sempre aperta
G
D
vieni, dici e se vuoi vai
A
Em
che c'e' un tempo per tacere
G
D
e il tempo in cui non puoi
Em
D
G
A
sul tempo che la banda tiene
G6
G
ci puoi dire cio' che sei.
A
Nel nome di te
Em

nel nome di chi c'e'


G
D
c'e' la banda accesa.
A
Nel nome di te
Em
nel nome di chi c'e'
G
D
di chi se no?
A
Nel nome di te
Em
nel nome di chi c'e'
G
D
non ci sono scuse.
Em
O suoni oppure
G
A
Em
G
D
A
Em G
D
lasci suonare e___ o___ o___ o_o_ e_ e__ o__ o__ o_ o_ e_
A
Em
La forza della banda
G
D
sta nel non dover piacere
A
Em
perche' giocare al rock 'n roll
G
D
comunque e' un'opinione
A
Em
ci son rapper da parrocchia
G
D
e punk per sentito dire
Em
D
G A
la banda e' fuori genere
G6
G
ma dice cio' che deve dire
A
Em
e te lo dice in faccia
G
D
nel nome di chi sei
A
Em
nel nome di quel mondo
G
D
che vorresti e che vorrei
A
Em
mentre il batterista mena
G
D
perche' si sente un dio
Em
D
G
io suono e dico e sbaglio
A G6
G
ma sempre e solo a modo mio
A
Nel nome di te
Em
nel nome di chi c'e'
G
D
c'e' la banda accesa.
A
Nel nome di te

Em
nel nome di chi c'e'
G
D
di chi se no?
A
Nel nome di te
Em
nel nome di chi c'e'
G
D
non ci sono scuse.
Em
O balli oppure
G
A Em G D
A Em
lasci ballare e o o o e e o
[ripete l'intro due volte]
A
Em
La forza della banda
G
D
e' nello star lontani
A
Em
dai posti in cui sono stati
G
D
Brian Janis, Jim e Jimi
A
Em
che son grandi e lo sappiamo
G
D
che nessuno e' come loro
Em
D
G A
ma io non mi vergogno
G6
G
se suono per restare vivo
A
Em
e noi passiamo piano
G
D
siamo molto piu' leggeri
A
Em
le nostre tracce tanto
G
D
non rimangono nemmeno
A
Em
che c'e' un tempo da tenere
G
Em
e c'e' un tempo per morire
Em
D
G A
la banda e' ancora in giro:
G6
G
qualcuno deve far ballare
A
Nel nome di te
Em
nel nome di chi c'e'
G
D
di chi se no?
A
Nel nome di te
Em
nel nome di chi c'e'
G
D

G D
o o e

non ci sono scuse.


Em
O suoni oppure
G
ti lasci
A
Nel nome di
Em
nel nome di
A
Nel nome di
Em
nel nome di
A
Nel nome di
Em
nel nome di

suonare
te
G

chi c'e'
te
chi c'e'
te
chi c'e'

[outro]
Em G
A Em G D
A Em G D
A
o o o o e o o
o o e e
+-+-+-+-+-+-+-+-+-+-+-+-+-+-+-+-+-+-+-+-+-+-+-+-+-+-+-+-+-+-+-+-+~~~~~~~~~~~~~~~~~~~
HAI UN MOMENTO DIO?
~~~~~~~~~~~~~~~~~~~
[Intro]
(chitarra acustica)
e:--------------------|--------------------------|
B:--------------------|--------0--------0--------|
G:--------------------|-----0--------0--------0--|
D:----------------0-2/|--3--------3--------3-----|
A:--------------------|--------------------------|
E:--------------------|--------------------------|
--------------------------|--------------------------|
--------0--------0--------|--------0--------3-----0--|
-----0--------0--------0--|-----0--------0-----------|
--2--------2--------2-----|--3--------3--------3-----|
--------------------------|--------------------------|
--------------------------|--------------------------|
G
--------------------------|--3---------------------|
--------0-----------------|--3------1--1--0--------|
-----0--------------------|--0------0--------2--0--|
--2--------2/-3\-2--0-----|--0---------------------|
-----------------------3--|--2---------------------|
--------------------------|--3---------------------|
C
Am
G
C
Am
--0--------0--------|--3--------------------|--0--------0--------|
--1--------1--------|--3--------1--0--------|--1--------1--------|
--0--------2--------|--0--------------2--0--|--0--------2--------|

--2--------2--------|--0--------------------|--2--------2--------|
--3--------0--------|--2--------------------|--3--------0--------|
--0--------0--------|--3--------------------|--0--------0--------|
G
D
C
Am
C'ho un po' di traffico nell'anima
G
D
C Am
non ho capito che or'e
G
D
c'ho il frigo vuoto
C
Am
ma voglio parlare
G D
C Am
percio'
paghi Te.
G
D
Che tu sia un angelo
C
Am
od un diavolo
G
D
C
Am
ho tre domande per Te:
G
D
chi prende l'Inter
C
Am
dove mi porti
G
D
e poi di', soprattutto,
C
perche'?
D
Perche'
Am
C
ci dovra' essere un motivo, no?
D
Perche'
Am
forse la vita la capisce
C
chi e' piu' pratico.
G
D
C
Hai un momento Dio?
Am
G
No, perche' sono qua
D
C
D4 D
insomma ci sarei anch'io.
G
D
C
Hai un momento Dio?
Am
G
O Te o chi per Te
D
C
avete un attimo per me.
[Ripete l'intro senza l'ultimo pezzo di TAB]
[accordi C.S.]
Li pago tutti io i miei debiti
se rompo pago per tre
quanto mi costa
una risposta
da Te di', su, quant'e'?
Ma Tu sei li' per non rispondere

e indossi un gran bel gilet


e non bevi niente
o io non Ti sento, com'e'?
perche'?
D
Perche'
Am
C
ho qualche cosa in cui credere
D
Perche'
Am
non riesco mica a ricordare
C
bene che cos'e'.
G
D
C
Hai un momento Dio?
Am
G
No, perche' sono qua
D
C
D4 D
se vieni sotto offro io.
G
D
C
Hai un momento Dio?
Am
G
Lo so che fila c'e'
D
C
ma Tu hai un attimo per me.
Bb

D4 D
Bb
nel mio stomaco son sempre solo
D4 D
Bb
nel Tuo stomaco sei sempre solo
F
cio' che sento,
cio' che senTi
D
non lo sapranno mai
G
D
C
Am
Almeno di' se il viaggio e' unico
G
D
C Am
e se c'e' il sole di la'
G
D
C
Am
se stai ridendo io non mi offendo
G
D
C
pero',
perche'?
C
perche'?
D
Perche'
Am
C
nemmeno una risposta ai miei perche'?
D
Perche'
Am
non mi fai fare almeno un giro
C
col tuo bel gilet?
G
D
C
Hai un momento Dio?
Am
G
No, perche' sono qua
D
C
D4 D

insomma ci sarei anch'io.


G
D
C
Hai un momento Dio?
Am
G
O te o chi per te
D
C
avete un attimo per me?
G
D
C
Am
E e e e e e e e
[Ripete il giro G D C Am e gradatamente
sfuma nell'intro concludendo sul G]
+-+-+-+-+-+-+-+-+-+-+-+-+-+-+-+-+-+-+-+-+-+-+-+-+-+-+-+-+-+-+-+-+~~~~~~~~~~~~~~~~~~~~
RANE A RUBIERA BLUES
~~~~~~~~~~~~~~~~~~~~
[NOTA: questo e' solo un'accenno di TAB, basato piu' sull'intuito
che su una reale trascrizione della canzone. E' sicuramente
migliorabile]
e|------------------------|---------------------|
B|--------3----3--2----0--|---------------------|
G|-----2--2----2--2----2--|--2------------------|
D|------------------------|---------------------|
A|--0---------------------|-----------0---------|
E|------------------------|------------------0--|

------------------------|---------------------|
--------3----3--2----0--|---------------------|
-----2--2----2--2----2--|--2------------------|
------------------------|---------------------|
--0---------------------|-----------0---------|
------------------------|------------------0--|

------------------------|--------------------|
--------3----3--2----0--|--------------------|
-----2--2----2--2----2--|--2-----------------|
------------------------|--------------------|
--0---------------------|-----------0--------|
------------------------|--------------------|

---------------------|---------------------|
---------------------|---------------------|
--------0------------|--------2------------|
---------------------|---------------------|
-----0---------------|-----0---------------|
--0------------------|--0------------------|
[.....................................]
da qui in poi non saprei trascrivere niente di preciso.
+-+-+-+-+-+-+-+-+-+-+-+-+-+-+-+-+-+-+-+-+-+-+-+-+-+-+-+-+-+-+-+-+-

~~~~~~~~~~~
CERTE NOTTI
~~~~~~~~~~~
[Intro]
[Ritmo terzinato in 12/8]
[NOTA: La TAB dovrebbe essere corretta al 99%, tranne forse le
posizioni; nel video del Night Express infatti *Capitan* Fede
suonava l'intro cosi':
E
A
e|----------------------------------------|
B|--5--------5----------------------------|
G|-----4--------4---------4---------4-----|
D|--------2--------2--1h2----2--1h2----2--|
A|----------------------------------------|
E|----------------------------------------|
io non ci riesco :), comunque anche la mia versione dovrebbe suonare
bene. Una trascrizione piu' fedele all'originale e' riportata alla
fine, ad opera di miki79]
NOTA: per chi lo desiderasse ho anche un file Guitar Pro della
canzone comprese alcune parti del basso.
E
A
e|--0--------0----------------------------|
B|-----0--------0---------0---------0-----|
G|----------------------------------------|
D|--------2--------2--1h2----2--1h2----2--|
A|----------------------------------------|
E|----------------------------------------|
E
A
--0--------0----------------------------|
-----0--------0---------0---------0-----|
----------------------------------------|
--------2--------2--1h2----2--1h2----2--|
----------------------------------------|
----------------------------------------|
Cer -te
E
A
--0--------0----------------------------|
-----0--------0---------0---------0-----|
----------------------------------------|
--------2--------2--1h2----2--1h2----2--|
----------------------------------------|
----------------------------------------|
Not- ti
B
A
E
--0------------------0--------0--------|
-----0---------0--------0--------0-----|
---------------------------------------|
--------2--1h2----2--------2--------2--|
---------------------------------------|
---------------------------------------|
C#m
A
----------------------0--------0--------|
--4h5p0~----4h5p0~-------0--------0-----|

----------------------------------------|
----------------------------2--------2--|
----------------------------------------|
----------------------------------------|
B
----------------------0--------0--------|
------0---------0--------0--------0-----|
----------------------------------------|
--1h2----2--1h2----2--------2--------2--|
----------------------------------------|
----------------------------------------|
G#m
A
--------------------------------------|
-----4-----7--5--4-----4-----7--5--4--|
--4-----4-----------4-----4-----------|
--------------------------------------|
--------------------------------------|
--------------------------------------|
C#m
A
----------------------0--------0--------|
------0---------0--------0--------0-----|
----------------------------------------|
--1h2----2--1h2----2--------2--------2--|
----------------------------------------|
----------------------------------------|
G#m
A
--------------------0--------0--------|
--5p4p0----5p4p0-------0--------0-----|
--------------------------------------|
--------------------------2--------2--|
--------------------------------------|
--------------------------------------|
B
A
E
------------0----------------------------|
------0--------0---------0---------0-----|
-----------------------------------------|
--1h2----2--------2--1h2----2--1h2----2--|
-----------------------------------------|
-----------------------------------------|
D
--2--0-----2--0-----2--------2--------|
--3-----3--------3--3--3--------3-----|
--2-----------------2-----2--------2--|
--------------------------------------|
--------------------------------------|
--------------------------------------|
--2--0-----2--0-----2--------2--------|
--3-----3--------3--3--3--------3-----|
--2-----------------2-----2--------2--|
--------------------------------------|
--------------------------------------|
--------------------------------------|

[seconda strofa]
E
A
B
A
E
--0------------5------------|--7------5------0------------|
--0------------5------------|--7------5------0------------|
--1------------6------------|--8------6------1------------|
--2------------7------------|--9------7------2------------|
--2------------7------------|--9------7------2------------|
--0------------5------------|--7------5------0------------|
C#m
A
----------------------0--------0--------|
--4h5p0~----4h5p0~-------0--------0-----|
----------------------------------------|
----------------------------2--------2--|
----------------------------------------|
----------------------------------------|
B
----------------------0--------0--------|
------0---------0--------0--------0-----|
----------------------------------------|
--1h2----2--1h2----2--------2--------2--|
----------------------------------------|
----------------------------------------|
G#m
A
--------------------------------------|
-----4-----7--5--4-----4-----7--5--4--|
--4-----4-----------4-----4-----------|
--------------------------------------|
--------------------------------------|
--------------------------------------|
C#m
A
----------------------0--------0--------|
------0---------0--------0--------0-----|
----------------------------------------|
--1h2----2--1h2----2--------2--------2--|
----------------------------------------|
----------------------------------------|
G#m
A
--------------------0--------0--------|
--5p4p0----5p4p0-------0--------0-----|
--------------------------------------|
--------------------------2--------2--|
--------------------------------------|
--------------------------------------|
B
A
E
------------0----------------------------|
------0--------0---------0---------0-----|
-----------------------------------------|
--1h2----2--------2--1h2----2--1h2----2--|
-----------------------------------------|
-----------------------------------------|
C#m
B
--------------------------------------|

-----------5-----------------7--------|
--------6-----6-----------8-----8-----|
-----6-----------6-----9-----------9--|
--4-----------------9-----------------|
--------------------------------------|
A
E
--------------------------------------|
-----------5-----------------0--------|
--------6-----6-----------1-----1-----|
-----7-----------7-----2-----------2--|
--7-----------------2-----------------|
--------------------------------------|
A
B
--------------------------------------|
-----------5-----------------7--------|
--------6-----6-----------8-----8-----|
-----7-----------7-----9-----------9--|
--7-----------------9-----------------|
--------------------------------------|
A
E
--------------------------------------|
-----------5-----------------0--------|
--------6-----6-----------1-----1-----|
-----7-----------7-----2-----------2--|
--7-----------------2-----------------|
--------------------------------------|
A
B
--------------------------------------|
-----------5-----------------7--------|
--------6-----6-----------8-----8-----|
-----7-----------7-----9-----------9--|
--7-----------------9-----------------|
--------------------------------------|
F#m
E
A
--------------------------------------|
-----------------------------5--------|
--------2--------1--------6-----6-----|
-----4--------2--------7-----------7--|
--4--------2--------7-----------------|
--------------------------------------|
A
B
--------------------------------------|
-----------5-----------------7--------|
--------6-----6-----------8-----8-----|
-----7-----------7-----9-----------9--|
--7-----------------9-----------------|
--------------------------------------|
D
--14--12------14--12------14----------14----------|
----------15----------15------15----------15------|
----------------------------------14----------14--|
--------------------------------------------------|
--------------------------------------------------|

--------------------------------------------------|
D
--14--12------14--12------14----------14----------|
----------15----------15------15----------15------|
----------------------------------14----------14--|
--------------------------------------------------|
--------------------------------------------------|
--------------------------------------------------|
[si alza di un'ottava ma il riff e' lo stesso]
E
A
--12---------12-------------7---------7-----|
------12---------12-------------------------|
----------9----------9--8h9----9--8h9----9--|
--------------------------------------------|
--------------------------------------------|
--------------------------------------------|
B
A
E
--12-------------7-----12---------12---------|
------12-------------------12---------12-----|
----------9--8h9----9----------9----------9--|
---------------------------------------------|
---------------------------------------------|
---------------------------------------------|
C#m
A
----------------------12---------12---------|
--4h5p0~----4h5p0~--------12---------12-----|
------------------------------9----------9--|
--------------------------------------------|
--------------------------------------------|
--------------------------------------------|
B
------7---------7-----12---------12---------|
--------------------------12---------12-----|
--8h9----9--8h9----9----------9----------9--|
--------------------------------------------|
--------------------------------------------|
--------------------------------------------|
G#m
A
------11------14--12--11------11------14--12--11--|
--12------12--------------12------12--------------|
--------------------------------------------------|
--------------------------------------------------|
--------------------------------------------------|
--------------------------------------------------|
C#m
A
------7---------7-----12---------12---------|
--------------------------12---------12-----|
--8h9----9--8h9----9----------9----------9--|
--------------------------------------------|
--------------------------------------------|
--------------------------------------------|

G#m
A
--------------------12---------12---------|
--5p4p0----5p4p0--------12---------12-----|
----------------------------9----------9--|
------------------------------------------|
------------------------------------------|
------------------------------------------|
B
A
E
------7-----12-------------7---------7-----|
----------------12-------------------------|
--8h9----9----------9--8h9----9--8-9----9--|
-------------------------------------------|
-------------------------------------------|
-------------------------------------------|
C#m
B
--------------------------------------|
-----------5-----------------7--------|
--------6-----6-----------8-----8-----|
-----6-----------6-----9-----------9--|
--4-----------------9-----------------|
--------------------------------------|
A
E
--------------------------------------|
-----------5-----------------0--------|
--------6-----6-----------1-----1-----|
-----7-----------7-----2-----------2--|
--7-----------------2-----------------|
--------------------------------------|
A
B
--------------------------------------|
-----------5-----------------7--------|
--------6-----6-----------8-----8-----|
-----7-----------7-----9-----------9--|
--7-----------------9-----------------|
--------------------------------------|
A
E
--------------------------------------|
-----------5-----------------0--------|
--------6-----6-----------1-----1-----|
-----7-----------7-----2-----------2--|
--7-----------------2-----------------|
--------------------------------------|
A
B
--------------------------------------|
-----------5-----------------7--------|
--------6-----6-----------8-----8-----|
-----7-----------7-----9-----------9--|
--7-----------------9-----------------|
--------------------------------------|
F#m
E
A
--------------------------------------|
-----------------------------5--------|
--------2--------1--------6-----6-----|

-----4--------2--------7-----------7--|
--4--------2--------7-----------------|
--------------------------------------|
A
B
--------------------------------------|
-----------5-----------------7--------|
--------6-----6-----------8-----8-----|
-----7-----------7-----9-----------9--|
--7-----------------9-----------------|
--------------------------------------|
D
--14--12------14--12------14----------14----------|
----------15----------15------15----------15------|
----------------------------------14----------14--|
--------------------------------------------------|
--------------------------------------------------|
--------------------------------------------------|
D
--14--12------14--12------14----------14----------|
----------15----------15------15----------15------|
----------------------------------14----------14--|
--------------------------------------------------|
--------------------------------------------------|
--------------------------------------------------|
[solo]
NB: inizia sulla fine della battuta precedente.
------------------------------|
------------------------------|
----------------------13--14--|
------------------------------|
------------------------------|
------------------------------|
------------------------------------------|
--17----17r---12--14--14----14\-----------|
------------------------------------------|
----------------------------------18p-16--|
------------------------------------------|
------------------------------------------|
--------------------------------------------12--|
------------------------------------------------|
---------------------------------9--11/-13------|
--14--16------14--16r-14--9--11-----------------|
----------16------------------------------------|
------------------------------------------------|
-----------------------------------------------------|
--14~-12r-12-----12r-12r------9--------12--------14--|
------11r-11--9--11r-12r-----------------------------|
-------------------------9h11----11/13-----13/14-----|
-----------------------------------------------------|
-----------------------------------------------------|
------------------------------------|
------------------------------------|

------13h14p13----------------------|
--14------------14------------------|
------------------------------------|
------------------------------------|
[fine solo]
--------------------------|--------------------------|
--------------------------|--------------------------|
--- queste sono le battute della parte principale ---|
----------- lasciate vuote durante il solo ----------|
--------------------------|--------------------------|
--------------------------|--------------------------|
--------------------------|--------------------------|
--------------------------|--------------------------|
--------------------------|--------------------------|
--------------------------|--------------------------|
--------------------------|--------------------------|
--------------------------|--------------------------|
C#m
B
--------------------------------------|
-----------5-----------------7--------|
--------6-----6-----------8-----8-----|
-----6-----------6-----9-----------9--|
--4-----------------9-----------------|
--------------------------------------|
A
E
--------------------------------------|
-----------5-----------------0--------|
--------6-----6-----------1-----1-----|
-----7-----------7-----2-----------2--|
--7-----------------2-----------------|
--------------------------------------|
A
B
--------------------------------------|
-----------5-----------------7--------|
--------6-----6-----------8-----8-----|
-----7-----------7-----9-----------9--|
--7-----------------9-----------------|
--------------------------------------|
A
E
--------------------------------------|
-----------5-----------------0--------|
--------6-----6-----------1-----1-----|
-----7-----------7-----2-----------2--|
--7-----------------2-----------------|
--------------------------------------|
A
B
--------------------------------------|
-----------5-----------------7--------|
--------6-----6-----------8-----8-----|
-----7-----------7-----9-----------9--|
--7-----------------9-----------------|
--------------------------------------|

F#m
E
A
--------------------------------------|
-----------------------------5--------|
--------2--------1--------6-----6-----|
-----4--------2--------7-----------7--|
--4--------2--------7-----------------|
--------------------------------------|
A
B
--------------------------------------|
-----------5-----------------7--------|
--------6-----6-----------8-----8-----|
-----7-----------7-----9-----------9--|
--7-----------------9-----------------|
--------------------------------------|
D
--14--12------14--12------14----------14----------|
----------15----------15------15----------15------|
----------------------------------14----------14--|
--------------------------------------------------|
--------------------------------------------------|
--------------------------------------------------|
D
--14--12------14--12------14----------14----------|
----------15----------15------15----------15------|
----------------------------------14----------14--|
--------------------------------------------------|
--------------------------------------------------|
--------------------------------------------------|
E
--0------------------------|
--0------------------------|
--1------------------------|
--2------------------------|
--2------------------------|
--0------------------------|

E
A
Certe notti la macchina e' calda
B
A
E
e dove ti porta lo decide lei
C#m
A
Certe notti la strada non conta
B
che quello che conta e' sentire che vai
G#
A
Certe notti la radio che passa Neil Young
C#m
A
sembra avere capito chi sei
E
A
Certe notti somigliano a un vizio
B
A
E
D D9 D D9
che tu non vuoi smettere, smettere mai.
E
A
Certe notti fai un po' di cagnara

B
A
E
che sentano che non cambierai piu'
C#m
A
Quelle notti fra cosce e zanzare
B
e nebbia e locali a cui dai del tu
G#m
A
Certe notti c'hai qualche ferita
C#m
A
che qualche tua amica disinfettera'
E
A
Certe notti coi bar che son chiusi
B
A
E
al primo autogrill c'e' chi festeggera'.
C#m

B
E si puo' restare soli
A
E
certe notti qui
A
B
che chi s'accontenta gode
A
E
cosi' cosi'
E
A
B
Certe notti o sei sveglio
F#m
E
A
o non sarai sveglio mai
B
D D9 D D9
Ci vediamo da Mario prima o poi.

[solo hammond]
[qui mi pare che la TAB in sottofondo si alzi di un'ottava]
E
A
Certe notti ti senti padrone
B
A
E
di un posto che tanto di giorno non c'e'
C#m
A
Certe notti se sei fortunato
B
bussi alla porta di chi e' come te
G#m
A
C'e' la notte che ti tiene fra le sue tette
C#m
A
un po' mamma un po' porca com'e'
E
A
Quelle notti da farci l'amore
B
A
E
fin quando fa male, fin quando ce n'e'.
C#m
A
A

B
E si puo' restare soli
E
certe notti qui
B
che se ti accontenti godi

A
cosi' cosi'

E
A
B
Certe notti son notti
F#m E
A
o le regaliamo a voi
B
D D9 D D9
Tanto Mario riapre prima o poi.

Certe notti qui, certe notti qui,


D D9 D D9 D
certe notti qui, certe notti.
[intermezzo]
[solo chitarra]
[Parere personale: visto il video del Night Express
penso che la migliore trascrizione sia la prima fra quelle
che vedete qua sotto. Lascio lo stesso le altre perche'
penso che per qualcuno possano essere in posizioni piu'
facili (soprattutto se non avete un'elettrica sottomano)]
un grosso grazie a Giampaolo Molinari <giampa64@iol.it>,
autore della TAB seguente:
e---------12>14--12-------------------------------------B-------------------------12-14-14^-14------------------G--13-14------------------------------------------------D----------------------------------------------16-14-16-A-------------------------------------------------------E-------------------------------------------------------e-------------------------------------------------------B----------------------------------------------14>17--14G-------------------------------------------12----------D--16-14----14--16>18-14-----------------14-------------A--------16------------------------14-16----------------E-------------------------------------------------------e-------------------------------------------------------B--10>12-------12-12------------------------------12----G--11>13-11>9--13-13--------------13--------------------D-------------------------------------------12/13----13-A---------------------------14/15----15-----------------E-------------------------------------------------------e------------------------------12~~~~~------------------B--------14---------------------------------------------G-----------------------13/14---------------------------D--13/14-----14-----------------------------------------A-------------------------------------------------------E-------------------------------------------------------ALTRA VERSIONE DEL SOLO:
-------|----------------|---------|----------------------------|-17^-17tr-12-14-|-14^-14\-|----------------------13-14-|----------------|---------|----------------------------|----------------|---------|-18p16-14-16----14-16^
-------|----------------|---------|-------------16-------------|----------------|---------|----------------------

----|--------------12-|---------------|---------|-----------|-----------------|-14tr-12^-12---|-12^-12^-|------9----|------9-11/13----|------11^-11-9-|-11^-12^-|--------14-|-9-11------------|---------------|---------|-9h11------|-----------------|---------------|---------|-----------|-----------------|---------------|---------|-----------------|-------------------------|
-------12-|-------14----------------|
----------|-------------13h14p13----|
-11/13----|-13/14----14----------14-|
----------|-------------------------|
----------|-------------------------|
[... ancora un'altra versione di Alessandro Martino
<indigod2@club-internet.fr>. Personalmente non la ritengo
migliore delle altre, ma forse ha posizioni piu' facili]
---------12Bend-release-----------------------------9--12--------------------12--14--14Bend-release-----------------------------------------------------------------------------------------------------------------------------------------------------------------------------------------------------------------------------------------------------------------------------------------------------11p--9--11h------9--11--11Bend-release--11----------------11------------------------------------------------------------------------------------------------------------------------------------9--9-------------------------------------------9-----9----------------------------------------9-----------11--9--11Bend--11Bend-release--9--11-------------------------------------------------------------------------------------------------------------------------------------------------------------------------------------12-----------------------------------12----------14----------9---------11--11/13------13---------13
--9/11-----11/13-----------------------------------------------------------------------------------------------------------------------G#m
A
Certe notti sei solo piu' allegro,
G#m
A
piu' ingordo, piu' ingenuo e coglione che puoi
E
A
Quelle notti son proprio quel vizio
B
A
E
che non voglio smettere, smettere mai.
C#m

B
E si puo' restare soli

E
certe notti qui
A
B
Che chi s'accontenta gode
A
E
cosi' cosi'
E
A
B
Certe notti o sei sveglio
F#m
E
A
o non sarai sveglio mai
B
D D9 D D9 D
Ci vediamo da Mario prima o poi.
D D9 D D9 D
certe notti qui certe notti qui,
E
certe notti qui.
E ora il basso:
G|--------------------------|--------------------------|
D|--------------------------|--------------------------|
A|--------------------------|--------------------------|
E|--------------------------|--------------------------|
Certe
----------------------------|-----------------------------|
----------------------------|-----------------------------|
---------------0------------|--2------0-------------------|
--0-------------------------|----------------0------------|
notti...
----------------------------|----------------------------|
----------------------------|----------------------------|
--4------------0------------|--2------------2------------|
----------------------------|----------------------------|
----------------------------|----------------------------|
----------------------------|----------------------------|
---------------0------------|--4------------0------------|
--4-------------------------|----------------------------|
----------------------------|-----------------------------|
----------------------------|-----------------------------|
---------------0------------|--2------0-------------------|
--0-------------------------|----------------0------------|
[intermezzo]
------------------------------|--------------------------------|
---------7------5------4------|--------------------------------|
--5---------------------------|--5------3------2---------------|
------------------------------|-----------------------5--3--0--|
poi la seconda strofa e' come la prima.
Manca la parte del ritornello
[Trascrizione alternativa, piu' fedele all'originale ma anche un
po' piu' difficile da eseguire]
Transcribed by: miki79
Email: voltron17@hotmail.com
reef#1 (Intro)

----------------|---------------------|-----------------|--------------------5-------5------|---------------------|--5-------5------|----------------------4-------4----|------4---------4----|----4-------4----|------4--------4----2---2-------2--|--1h2---2---1h2---2--|--2---2-------2--|--1h2---2--1-h2--2-----------------|---------------------|-----------------|-----------------------------------|---------------------|-----------------|-----------------------------------|---------------------|------------------|-------------------5-------5------|---------------------|--5---------------|--5------5-----------4-------4----|------4---------4----|----4--------4----|----4------4-------2---2-------2--|--1h2---2---1h2---2--|--2---2--1h2---2--|------2------2--------------------|---------------------|------------------|----------------------------------|---------------------|------------------|-------------------------------------|-----------------|--------------------|------------------5p4------5p4------|--5-------5------|--------------------|--5--------5----------4-4------4-4--|----4-------4----|------4--------4----|----4-------4-----------------------|------2-------2--|--1h2---2--1h2---2--|------2-------2---------------------|-----------------|--------------------|------------------------------------|-----------------|--------------------|----------------------0---2--0------|----0----2--0----|-------------------|-------------------------------------|-----------------|------0--------0---|---5--------5------0h1---1------1----|--2---2-------2--|-------------------|-----4-------4-----------------------|-----------------|--1h2---2--1h2---2-|-------2-------2---------------------|-----------------|-------------------|-------------------------------------|-----------------|-------------------|-------------------------------------|-----------------|-------------------|-------------------5p4------5p4------|--5-------5------|------------5------|------0-------0----

-----4--------4----|----4-------4----|------4-------4----|-------------------------2--------2--|------2-------2--|--6h7---2-------2--|--1h2---2--1h2--2--------------------|-----------------|-------------------|-------------------------------------|-----------------|-------------------|-------------------

reef #2
-12--------12-------|-------------------------|--12--------------------|--------12--------12----|------12-----------12----|-----12-----------12----|-----------9---------9--|--8/9----9-----8/9----9--|--------9-----8/9----9--|------------------------|-------------------------|------------------------|------------------------|-------------------------|------------------------|------------------------|-------------------------|------------------------|-----12--------12-------|----------------------|--12--------12-------|--------------12--------12----|--5h4---------5h4-----|-----12--------12----|-----------------9---------9--|------4---4-------4/--|--------9---------9--|------------------------------|----------------------|---------------------|------------------------------|----------------------|---------------------|------------------------------|----------------------|---------------------|-----------------------12-------|-------------12-------|--------12----14--12-----|---------12---------12----|------12--------12----|-------------------------|-----8/9-----9---------9--|--8/9----9---------9--|--12/13----13--------13--|--------------------------|----------------------|-------------------------|--------------------------|----------------------|-------------------------|--------------------------|----------------------|-------------------------|-----------12-----14--12-----|-----------------------|--12--------12-------|-----------------------------|------12---------12----|-----12--------12----|-----13/14----14---------14--|--8/9----9---8/9----9--|--------9---------9--|-----

-------------------------|-----------------------|---------------------|-----------------------------|-----------------------|---------------------|-----------------------------|-----------------------|---------------------|----------------------|-12-------12------|-----------12------|-----------12------5h4-------5h4----|----12-------12---|-----12-------12---|-----12------12--------4--4------4/-|-------9--------9-|-8/9----9--------9-|-8/9----9-------9-------------------|------------------|-------------------|------------------------------------|------------------|-------------------|------------------------------------|------------------|-------------------|-------------------

solo
--------|--------------------|--------------|---------------------------------------|--17b--17h17v12-14--|-14b--14h14/--|--------------------------------13-14--|--------------------|--------------|---------------------------------------|--------------------|--------------|--/-18p16-14-16----14-16b--14h---------|--------------------|--------------|----------------16---------------------|--------------------|--------------|---------------------------------------------------12--|-------------------|---------------|---------------------------------------|--14v--12b--12-----|--12b--12h12b--|-------9------------------9--11/13-----|-------11b--11--9--|--11b--11h11b--|----------------h14--9-11--------------|-------------------|---------------|--9h11--x11----------------------------|-------------------|---------------|---------------------------------------|-------------------|---------------|--------------------------|---------------------------|----------------------|--------------------12--|--------14-----------------|----------------------|------------------------|--------------13h14p13-----|--13v--14v--16v-------|--------------11/13-----|--13/14----14----------14--|-----------------14v--|--------------

-----------|---------------------------|----------------------|------------------------|---------------------------|----------------------|-------------Caro Tigers,
colgo l'occasione per complimentarmi per il tuo lavoro sull'opera di
Ligabue
veramente completo.
Per facilitarmi lo studio della tua trascrizione di CERTE NOTTI ho
"rielaborato" il tuo file sovrapponendo il testo al tabulato. Premesso
che
al momento non ho sottomano n una chitarra n il cd originale e che
quindi
ho lavorato "a memoria" e basandomi sulla posizione degli accordi
rispetto
al testo, volevo chiederti un parere sulle posizioni; in particolare non
mi
e' chiaro come vadano suonati gli accordi dopo il "solo" e prima del
ritornello finale (per intenderci da: Certe notti sei solo piu' allegro,
piu' ingordo...).
Ti saluto, sperando ce il mio piccolo contributo ti possa essere utile.
Cem
[Intro]
[Ritmo terzinato in 12/8]
"[NOTA: La TAB dovrebbe essere corretta al 99%, tranne forse le
posizioni;
nel video del Night Express infatti *Capitan* Fede suonava l'intro
cosi':"
E
A
e|----------------------------------------|
B|--5--------5----------------------------|
G|-----4--------4---------4---------4-----|
D|--------2--------2--1h2----2--1h2----2--|
A|----------------------------------------|
E|----------------------------------------|
io non ci riesco, comunque anche la mia versione dovrebbe suonare bene.]
E
A
E
A
e|--0--------0----------------------------|--0--------0---------------------------|
B|-----0--------0---------0---------0-----|-----0--------0---------0--------0-----|
G|----------------------------------------|---------------------------------------|
D|--------2--------2--1h2----2--1h2----2--|--------2--------2--1h2----2-1h2----2--|
A|----------------------------------------|---------------------------------------|
E|----------------------------------------|---------------------------------------|

Cer
-te
E
A
B
A
E
--0--------0----------------------------|--0------------------0--------0-------|
-----0--------0---------0---------0-----|-----0---------0--------0-------0-----|
----------------------------------------|--------------------------------------|
--------2--------2--1h2----2--1h2----2--|--------2--1h2----2--------2-------2--|
----------------------------------------|--------------------------------------|
----------------------------------------|--------------------------------------|
Not- ti la macchina e' calda
e dove ti porta
lo decide
lei
C#m
A
B
----------------------0--------0--------|----------------------0-------0--------|
--4h5p0~----4h5p0~-------0--------0-----|------0---------0--------0-------0-----|
----------------------------------------|---------------------------------------|
----------------------------2--------2--|--1h2----2--1h2----2--------2-------2--|
----------------------------------------|---------------------------------------|
----------------------------------------|---------------------------------------|
Certe notti la strada non conta che quello che conta e' sentire che vai
G#m
A
C#m
A
--------------------------------------|----------------------0--------0-------|
-----4-----7--5--4-----4-----7--5--4--|------0---------0--------0-------0-----|
--4-----4-----------4-----4-----------|---------------------------------------|
--------------------------------------|--1h2----2--1h2----2--------2-------2--|
--------------------------------------|---------------------------------------|
--------------------------------------|---------------------------------------|
Certe notti la radio che passa Neil Young sembra avere capito chi sei
G#m
A
B
A
E
--------------------0--------0--------|------------0---------------------------|
--5p4p0----5p4p0-------0--------0-----|------0--------0---------0--------0-----|
--------------------------------------|----------------------------------------|
--------------------------2--------2--|--1h2----2--------2--1h2----2-1h2----2--|

--------------------------------------|----------------------------------------|
--------------------------------------|----------------------------------------|
Certe notti somigliano a un vizio che tu non vuoi smettere, smettere mai.
D
--2--0-----2--0-----2--------2--------|--2--0-----2--0-----2--------2-------|
--3-----3--------3--3--3--------3-----|--3-----3--------3--3--3--------3----|
--2-----------------2-----2--------2--|--2-----------------2-----2-------2--|
--------------------------------------|-------------------------------------|
--------------------------------------|-------------------------------------|
--------------------------------------|-------------------------------------|
[seconda strofa]
E
A
B
A
E
------0---------------------5------------|-----7------5---------0-----------|
------0---------------------5------------|-----7------5---------0-----------|
------1---------------------6------------|-----8------6---------1-----------|
------2---------------------7------------|-----9------7---------2-----------|
------2---------------------7------------|-----9------7---------2-----------|
------0---------------------5------------|-----7------5---------0-----------|
Certe notti fai un po' di cagnara che sentano che non cambierai piu'
C#m
A
B
---------------------------0--------0--------|----------------------0-------0--------|
-------4h5p0~----4h5p0~-------0--------0-----|------0---------0--------0-------0-----|
---------------------------------------------|---------------------------------------|
---------------------------------2--------2--|--1h2----2--1h2----2-------2--------2--|
---------------------------------------------|---------------------------------------|
---------------------------------------------|---------------------------------------|
Quelle notti fra cosce e zanzare e nebbia e locali a cui dai del tu
Certe
G#m
A
C#m
A
----------------------------------------|-----------------------0-------0--------|
-----4-----7--5----4-----4-----7--5--4--|-------0---------0--------0-------0-----|

--4-----4-------------4-----4-----------|----------------------------------------|
----------------------------------------|---1h2----2--1h2----2--------2-------2--|
----------------------------------------|----------------------------------------|
----------------------------------------|----------------------------------------|
notti c'hai qualche ferita che qualche tua amica
disinfettera'
Certe
G#m
A
B
A
E
----------------------0--------0--------|----------------0---------------------------|
--5p4p0-----5p4p0--------0--------0-----|-------0-----------0---------0--------0-----|
----------------------------------------|--------------------------------------------|
----------------------------2--------2--|--1h2-----2-----------2--1h2---2--1h2----2--|
----------------------------------------|--------------------------------------------|
----------------------------------------|--------------------------------------------|
notti coi bar che son chiusi al primo autogrill c'e' chi festeggera'.
C#m
B
A
E
--------------------------------------|-------------------------------------|
-----------5-----------------7--------|-----------5-----------------0-------|
--------6-----6-----------8-----8-----|--------6-----6-----------1-----1----|
-----6-----------6-----9-----------9--|-----7-----------7-----2----------2--|
--4-----------------9-----------------|--7-----------------2----------------|
--------------------------------------|-------------------------------------|
E si puo' restare so - li
certe
notti
qui
A
B
A
E
--------------------------------------|-------------------------------------|
-----------5-----------------7--------|-----------5-----------------0-------|
--------6-----6-----------8-----8-----|--------6-----6-----------1-----1----|
-----7-----------7-----9-----------9--|-----7-----------7-----2----------2--|
--7-----------------9-----------------|--7-----------------2----------------|
--------------------------------------|-------------------------------------|
che chi
s'accontenta gode
cosi'
cosi' Certe
A
B
F#m
E
A
--------------------------------------|-------------------------------------|

-----------5-----------------7--------|-----------------------------5-------|
--------6-----6-----------8-----8-----|--------2--------1--------6-----6----|
-----7-----------7-----9-----------9--|-----4--------2--------7----------7--|
--7-----------------9-----------------|--4--------2--------7----------------|
--------------------------------------|-------------------------------------|
notti o sei
sveglio
o
non
sarai
sveglio mai
A
B
D
--------------------------------------|--14--12------14--12------14---------14---------|
-----------5-----------------7--------|----------15----------15------15---------15-----|
--------6-----6-----------8-----8-----|---------------------------------14----------14-|
-----7-----------7-----9-----------9--|------------------------------------------------|
--7-----------------9-----------------|------------------------------------------------|
--------------------------------------|------------------------------------------------|
Ci ve-di-amo da Mario
prima o poi.
D
--14--12------14--12------14----------14----------|
----------15----------15------15----------15------|
----------------------------------14----------14--|
--------------------------------------------------|
--------------------------------------------------|
--------------------------------------------------|
[si alza di un'ottava ma il riff e' lo stesso]
E
A
B
A
E
12---------12-------------7---------7-----|--12-------------7-----12--------12---------|
----12---------12-------------------------|------12-------------------12--------12-----|
--------9----------9--8h9----9--8h9----9--|----------9--8h9----9---------9----------9--|
------------------------------------------|--------------------------------------------|
------------------------------------------|--------------------------------------------|
------------------------------------------|--------------------------------------------|
Certe notti ti senti padrone di un posto che tanto di giorno non c'e'
Certe
C#m
A
B
----------------------12---------12---------|------7---------7-----12--------12--------|
--4h5p0~----4h5p0~--------12---------12-----|-------------------------12---------12----|
------------------------------9----------9--|--8h9----9--8h9----9---------9----------9-|

--------------------------------------------|------------------------------------------|
--------------------------------------------|------------------------------------------|
--------------------------------------------|------------------------------------------|
notti se sei fortunato bussi
alla
porta
di chi e'
come
te
C'e' la
G#m
A
C#m
A
------11------14--12--11------11------14--12--11--|------7---------7----12---------12---------12------12--------------12------12--------------|-------------------------12---------12-----------------------------------------------------|--8h9----9--8h9----9---------9----------9--------------------------------------------------|-------------------------------------------------------------------------------------------|-------------------------------------------------------------------------------------------|-----------------------------------------notte
che ti tiene
fra le sue tette un po' mamma un po' porca
com'e'
Quelle
G#m
A
B
A
E
--------------------12---------12---------|------7-----12-------------7--------7-----|
--5p4p0----5p4p0--------12---------12-----|----------------12------------------------|
----------------------------9----------9--|--8h9----9----------9--8h9---9--8-9----9--|
------------------------------------------|------------------------------------------|
------------------------------------------|------------------------------------------|
------------------------------------------|------------------------------------------|
notti da farci l'amore
fin quando fa male, fin quando ce n'e'.
C#m
B
A
E
--------------------------------------|-------------------------------------|
-----------5-----------------7--------|-----------5-----------------0-------|
--------6-----6-----------8-----8-----|--------6-----6-----------1-----1----|
-----6-----------6-----9-----------9--|-----7-----------7-----2----------2--|
--4-----------------9-----------------|--7-----------------2----------------|
--------------------------------------|-------------------------------------|
E si puo' restare soli
certe notti qui
A
B
A
E
--------------------------------------|-------------------------------------|

-----------5-----------------7--------|-----------5-----------------0-------|
--------6-----6-----------8-----8-----|--------6-----6-----------1-----1----|
-----7-----------7-----9-----------9--|-----7-----------7-----2----------2--|
--7-----------------9-----------------|--7-----------------2----------------|
--------------------------------------|-------------------------------------|
che se ti accontenti godi
cosi' cosi'
Certe
A
B
F#m
E
A
--------------------------------------|--------------------------------------|
-----------5-----------------7--------|------------------------------5-------|
--------6-----6-----------8-----8-----|--------2---------1--------6----6-----|
-----7-----------7-----9-----------9--|-----4---------2--------7----------7--|
--7-----------------9-----------------|--4---------2--------7----------------|
--------------------------------------|--------------------------------------|
not-ti
son
not-ti
o
le
re - ga - liamo a voi
A
B
D
--------------------------------------|--14--12------14--12------14---------14----------|
-----------5-----------------7--------|----------15----------15------15---------15------|
--------6-----6-----------8-----8-----|---------------------------------14----------14--|
-----7-----------7-----9-----------9--|-------------------------------------------------|
--7-----------------9-----------------|-------------------------------------------------|
--------------------------------------|-------------------------------------------------|
Tanto
Mario
ria - pre
prima o poi. Certe notti qui,
certe
notti qui,
D
--14--12------14--12------14----------14----------|
----------15----------15------15----------15------|
----------------------------------14----------14--|
--------------------------------------------------|
--------------------------------------------------|
--------------------------------------------------|
Certe notti qui,
certe notti qui,
[solo]
NB: inizia sulla fine della battuta precedente.
------------------------------|
------------------------------|
----------------------13--14--|
------------------------------|
------------------------------|
------------------------------|

------------------------------------------|-------------------------------------------12--|
--17----17r---12--14--14----14\-----------|-----------------------------------------------|
------------------------------------------|--------------------------------9--11/-13------|
----------------------------------18p-16--|--14--16------14--16r-14--9-11-----------------|
------------------------------------------|----------16-----------------------------------|
------------------------------------------|-----------------------------------------------|
-----------------------------------------------------|-----------------------------------|
--14~-12r-12-----12r-12r------9--------12--------14--|-----------------------------------|
------11r-11--9--11r-12r-----------------------------|------13h14p13---------------------|
-------------------------9h11----11/13-----13/14-----|--14------------14-----------------|
-----------------------------------------------------|-----------------------------------|
-----------------------------------------------------|-----------------------------------|
[fine solo]
G#m
A
G#m
A
Certe notti sei solo piu' allegro, piu' ingordo, piu' ingenuo e coglione
che
puoi
E
A
B
A
E
Quelle notti son proprio quel vizio che non voglio smettere, smettere
mai.
C#m
B
A
E
------------------------------------------|-------------------------------------|
-----------5---------------------7--------|-----------5----------------0--------|
--------6-----6---------------8-----8-----|--------6-----6-----------1----1-----|
-----6-----------6---------9-----------9--|-----7-----------7-----2----------2--|
--4---------------------9-----------------|--7-----------------2----------------|
------------------------------------------|-------------------------------------|
E si puo' restare so - li
certe notti qui
A
B
A
E
------------------------------------------|-------------------------------------|
-------------5-------------------7--------|-----------5----------------0--------|

---------6-------6------------8-----8-----|--------6-----6-----------1----1-----|
-----7---------------7-----9-----------9--|-----7-----------7-----2----------2--|
-7----------------------9-----------------|--7-----------------2----------------|
------------------------------------------|-------------------------------------|
Che chi s'accon-ten-ta
gode
cosi' cosi'
Certe
A
B
F#m
E
A
--------------------------------------|-------------------------------------|
-----------5-----------------7--------|-----------------------------5-------|
--------6-----6-----------8-----8-----|--------2--------1--------6-----6----|
-----7-----------7-----9-----------9--|-----4--------2--------7----------7--|
--7-----------------9-----------------|--4--------2--------7----------------|
--------------------------------------|-------------------------------------|
notti
o
sei
sveglio
o non
sarai
sveglio mai
A
B
D
--------------------------------------|--14--12------14--12------14---------14----------|
-----------5-----------------7--------|----------15----------15------15---------15------|
--------6-----6-----------8-----8-----|---------------------------------14----------14--|
-----7-----------7-----9-----------9--|-------------------------------------------------|
--7-----------------9-----------------|-------------------------------------------------|
--------------------------------------|-------------------------------------------------|
Ci
vediamo da Mario
prima o poi. certe notti qui
certe
notti qui,
D
E
--14--12------14--12------14----------14----------|--0-----------------------|
----------15----------15------15----------15------|--0-----------------------|
----------------------------------14----------14--|--1-----------------------|
--------------------------------------------------|--2-----------------------|
--------------------------------------------------|--2-----------------------|
--------------------------------------------------|--0-----------------------|
certe notti qui.
+-+-+-+-+-+-+-+-+-+-+-+-+-+-+-+-+-+-+-+-+-+-+-+-+-+-+-+-+-+-+-+-+~~~~~

VIVA!
~~~~~
Intro:
(Chitarra elettrica distorta)
e:------8---------8------------8-|------8---------8------------8-|
B:--------------8------------8---|--------------8------------8---|
G:---------9-10---------9-10-----|---------9-10---------9-10-----|
D:--10---------------------------|--10---------------------------|
A:-------------------------------|-------------------------------|
E:-------------------------------|-------------------------------|
[NOTA: questa TAB e' stata *ispirata* da quella postata su OLGA
tempo fa da Toninelli Fabio <TONINELLI@CRE.ENEL.IT>.
Quello che segue e' il commento originale:
the rythm of the song in 4/4, the first 2 are played "pm" (placing
your right hand on the strings while you are moving from up to
down
the "plettro" on the low strings of the chord) playing the 3RD 1/4
normal you put an accent on it.
TRADUZIONE (fatta da me): il ritmo e' in 4/4, dove i primi due
sono suonati col pm {palm muting} (bisogna sfiorare col palmo
della mano destra le corde mentre si muove il plettro su e giu' sulle
corde basse) suonando il terzo quarto normale questo risultera'
accentato.]
-----------------------------------------------------------------Per una versione acustica si puo' tranquillamente fare un'ottava
sotto arpeggiando sull'accordo di DO (e' un po' piu' facile):
e:----------------------------|----------------------------|
B:-----1--------1-----------1-|-----1--------1-----------1-|
G:------------0-----------0---|------------0-----------0---|
D:--------2-3---------2-3-----|--------2-3---------2-3-----|
A:--3-------------------------|--3-------------------------|
E:----------------------------|----------------------------|
Altra "diteggiatura alternativa" [Andrea Zanovello]
---8-------8--------5-6-8-----5--------------------------- ecc. ecc.
----------------------------Am
C
Questa qua e' per te
F
Am
e anche se non e' un granche'
C
F
ti volevo solo dire
D7
G
che era qui in fondo a me.
Am
C
E' per te che lo sai
F
Am
di chi sto parlando dai

C
F
e ti piacera' un minuto
D7
G
e poi te ne scorderai.
F
C
perche' sei viva, viva
G
Am
cosi' come sei
F
C
quanta vita mi hai passato
G
A4
e non la chiedi indietro mai
A7
F
C
e sei viva, viva
G
Am
per quella che sei
F
C
sempre pronta, sempre ingorda
G
sempre solo come vuoi.
Am
C
Questa qua e' per te
F
Am
che non ti puoi spegnere
C
F
non hai mai avuto tempo
D7
G
devi troppo vivere
Am
C
e' per te
questa qua
F
Am
per la tua golosita'
C
F
ti strofini contro il mondo
D
G
tanto il mondo non ti avra'
F
C
perche' sei viva, viva
G
Am
cosi' come sei
F
C
quanta vita hai contagiato
G
A4
quanta vita brucerai
A7
F
G
che sei viva, viva
G
Am
per quella che sei
F
C
niente rate, niente sconti
G
solo viva come vuoi.
Am
C
Questa qua e' per te e
F
Am
non e' niente facile

C
F
dire quello che non riesco
D
G
mentre tu vuoi ridere
F
C
perche' sei viva, viva
G
Am
cosi' come sei
F
C
quanta vita mi hai passato
G
A4
e non la chiedi indietro mai
A7
F
C
perche' sei viva, viva
G
Am
per quella che sei
F
C
sempre pronta, sempre ingorda
G
sempre viva come vuoi.
[solo]
Autore ignoto: mi contatti!!
E //-----------|------------|-----------|------------|------------|-------2--|
B ||-----------|------------|----1-0----|------------|------------|----1-----|
G ||-------0---|2------0--2-|---------2-|--0-0--2----|------------|-0--------|
D ||p----2-----|-----2------|-----------|----------2-|----------0-|----------| ....
A ||-----------|------------|-----------|------------|----0-2-3---|----------|
E //-------7------|
B ||-----7---7----|
G ||9h10----------|
D ||-----------10-| Sembra identica fino al ritornello
A ||--------------|
E \\--------------|

F C G Am
F C G A4 A7
F C G Am
F C
Am
C
Questa qua e' per te
F
Am
che sai sempre scegliere
C
F
e io invece non ho scelta:
D
G
C
te la devo scrivere
[ripete l'intro fine in C]

+-+-+-+-+-+-+-+-+-+-+-+-+-+-+-+-+-+-+-+-+-+-+-+-+-+-+-+-+-+-+-+-+~~~~~~~~~~~~~~~~~~~~~~~~
I *RAGAZZI* SONO IN GIRO
~~~~~~~~~~~~~~~~~~~~~~~~
[TAB di Alessandro Marini]
[Intro]SOL
SOL/SI
DO
LAm7
RE
e:----------------|----------------|----------------|----------------|
B:-1--0-----------|-1--0-----------|-1--0-----------|----0-----------|
G:--------2-0-0-0-|--------2-0-0-0-|--------2-0-0-0-|-2------2-0-----|x 2
D:----------------|----------------|----------------|-0----------2-0-|
A:----------------|-2--------------|-3--------------|----------------|
E:-3--------------|----------------|----------------|----------------|
1 2 . 3 . 4 .
1 2 . 3 . 4 .
1 2 . 3 . 4 .
1 2 . 3 . 4 .
G
G/B
La radio sta dicendo che
C
D
e' meglio se restate in casa
G
G/B
che in giro c'e' qualcuno che
C
D
non e' vanuto nelle vostre polaroid.
Em
Niente santi
D
ne' assassini
F
ne' comunque una cosa sola
Em
D
F
non aprite agli ospiti un po' scomodi.
G
La radio sta dicendo che
C
D
qualcuno non si fa beccare
G
e sembra che in citta' ci sia
C
D
qualcuno che non e' finito mai in TV.
Em
Niente carne
D
da partito
F
ne' da indagine di mercato
Em
D
come state,
ce lo dite,
F
quando siete di fronte
Em
alla scritta sul muro?
D
Sul muro.
F9
Badate i *ragazzi* sono,
F9
i *ragazzi* sono,

F9
i *ragazzi*
F9
G
i *ragazzi*
G
i *ragazzi*
C
i *ragazzi*
G
i *ragazzi*
G
i *ragazzi*
C
i *ragazzi*

sono,
sono,
sono,
D
sono in giro!
sono,
sono,
D
sono in giro!

G
La radio sta dicendo che
C
D
qualcuno non vi ha neanche in nota
G
qualcuno che non scorda mai
C
D
chi siete sempre stati e chi sarete poi.
Em
C'e' chi stona
D
fuori coro
F
non parlate con lo straniero
Em
D
con chi passa e vi saluta
F
Em
proprio al centro di quel vostro brutto pensiero.
D
Pensiero.
F9
Badate i *ragazzi* sono,
F9
i *ragazzi* sono,
F9
i *ragazzi* sono,
F9
G
i *ragazzi* sono,
G
i *ragazzi* sono,
C
D
i *ragazzi* sono in giro!
G
i *ragazzi* sono,
G
i *ragazzi* sono,
C
D
i *ragazzi* sono in giro!
[solo]
Em

Dalle radio
D
alle case
F
Em

*c'e' chi rompe e non chiede scusa!*


D
ce lo dite cosa fate

Em
a chi piscia nel vostro piu' bel cimitero?
D
Davvero.
F9
Badate i *ragazzi* sono,
F9
i *ragazzi* sono,
F9
i *ragazzi* sono,
F9
G
i *ragazzi* sono,
G
i *ragazzi* sono,
C
D
i *ragazzi* sono in giro!
G
i *ragazzi* sono,
G
i *ragazzi* sono,
C
D
i *ragazzi* sono in giro!
[finale]
G C D fine in G
+-+-+-+-+-+-+-+-+-+-+-+-+-+-+-+-+-+-+-+-+-+-+-+-+-+-+-+-+-+-+-+-+~~~~~~~~~~~~~~~~~~
QUELLA CHE NON SEI
~~~~~~~~~~~~~~~~~~
[Intro]
(chitarra acustica)
e:---------------------0----|
B:----------0-3-------------|
G:--------2------0----------|
D:--2--2------------2-------|
A:--------------------------|
E:--------------------------|
[aggiunta di Stefano Bologna]
A me sembra che l'inizio di quella che non sei potrebbe suonare bene
anche
cosi'
e ---------------------------------------------B----------------------------------------------G-----------------------------------------------

D------------------0-----------------------2---A-----------2-----------0----------------------E---0--0--------------------3-------0----------oppure, come all'inizio di alcune esecuzioni di capitan Fede


e---------------------------------------------------------------------B---------------------------------------------------------------------G---------------------------------------------------------------------D-------------------------------------------------------0------------2A-------------2---0--------------2---0-----------2--------------------E----0---0-------------0---0-------------0--0------------3--0---------Ancora un'altra versione tra cui scegliere (grazie a Fulvio):
e:-----------------------|
B:-----------------------|
G:-----------------------|
D:-----------------------|
A:------------5--------7-|
E:-0-0----5-7----3-0-----|
(Scusate se per pigrizia non trascrivo tutti gli accordi, ma e'
proprio tutta uguale!)
[strofe]
[la TAB forse non e' esatta al 100% ma comunque *suona* bene]
Em
C
G
D
e:---------0-----------0-----|--------3------------2------|
B:------------0-----------1--|-----------0------------3---|
G:---------------------------|------------------2---------|
D:---------------------------|----------------0-----------|
A:---2--2--------3--3--------|--2--2--------0-------------|
E:---------------------------|----------------------------|
Em
C
Io ti ho vista gia'
G
D
Em
eri in mezzo a tutte le parole
C
G
D
che non sei riuscita a dire mai.
Eri in mezzo a
una vita che poteva andare
non si sapeva dove...
[rit]
[Qui la TAB dovrebbe essere giusta]
Em
C
G
D
e:--0--------0--------0-----|--3--------3--------2-----|
B:-----0--------1--------1--|-----0--------3--------3--|
G:--------0--------0--------|--------0--------2--------|
D:--------------------------|--------------------------|
A:--------------------------|--------------------------|
E:--------------------------|--------------------------|
Ti ho vista fare giochi con lo specchio

e aver fretta di esser grande


e poi voler tornare indietro
C
C
quando non si puo'.
Em
Quella che non sei
C
quella che non sei non sei
G
ma io sono qua
D
e se ti bastera'.
Quella che non sei e non sarai
a me bastera'.
C'e' un posto dentro te in cui fa freddo
e' il posto in cui nessuno e' entrato mai
Em A9 Em A9 Em A9 G D
quella che non sei
Em
A9
G
D
e:-------------------B:-------0-----------G:---------2-- (x3) --0-----D:-2--2------------4-A:-------------------E:-------------------Io ti ho vista gia'
eri in mezzo a tutte le tue scuse
senza saper per cosa.
Eri in mezzo a
chi ti dice scegli: *O troia o sposa*.
[rit]
Ti ho vista vergognarti di tua madre
fare a pezzi il tuo cognome
sempre senza disturbare
C
C
che non si sa mai.
Em
Quella che non sei
C
quella che non sei non sei
G
ma io sono qua
D
e se ti bastera'.
Quella che non sei e non sarai
a me bastera'.
C'e' un posto dentro te che tieni spento
e' il posto in cui nessuno arriva mai
Em A9 Em A9 Em A9 G D
quella che non sei.
[solo]
[grazie a Raffaele "MaDeT" d'Ettorre e a Daniele (kikkko)]
1

|--------------------------------------------|----------------------------|--------------------------------------------|----------------------------|-3/5---2--0-------0/2\0---------------------|------------------------0h2-|-------------3------------3--0---0-0---3----|--0h3--5---0h3---5----0-----|------------------------------------------3-|----------------------------|--------------------------------------------|----------------------------2
3
|----------------------------|------------------------------5---------8---|
|--1--1/3-------1----3/5---1-|-----------------0h1----1h3-------3/5-------|
|----------2-----------------|------------0h2-----------------------------|
|----------------------------|--0h3--5------------------------------------|
|----------------------------|--------------------------------------------|
|----------------------------|--------------------------------------------|
4
|-------------------------------3---------------------------|
|-------1---3-------1----3/5---------5\3----1----1/3-----1--|
|--0h2----------2-------------------------------------2-----|
|-----------------------------------------------------------|
|-----------------------------------------------------------|
|-----------------------------------------------------------|
5
6
|---------------------------------|------0-------0-------0--------0-------|
|---------------------------------|---------------------------------------|
|-----0-----0-----0-----0-----0---|-2/4-----2/4-----2/4-----2/4-------4---|
|---------------------------------|---------------------------------------|
|-5/7---5/7---5/7---5/7---5/7---7-|---------------------------------------|
|---------------------------------|---------------------------------------|
7

|-/5---/5---/5---/5-|----5---5---3---3----5---5---3/5---3---1-------------|
|-/5---/5---/5---/5-|--5---5---3---3----5---5------------------3----------|
|-------------------|------------------------------------------2----------|
|-------------------|-----------------------------------------------------|

|-------------------|-----------------------------------------------------|
|-------------------|-----------------------------------------------------|
Daniele, i copyright mettili te magari :)
Transcribed by: miki79
------------------------|--------------------------|-------------------------3-0--------------------|-------------3-5---3-5b-3-|-----------------------------2-0-2br2-0---2---0-|-------0-2/4-----4--------|----------------------------------------2---2---|-0-0h2--------------------|------------------------------------------------|--------------------------|------------------------------------------------|--------------------------|------------------------EC
-----------------------------------10--------------|---------------------------------3---5---7----8-10---8-10b----10b-8-10---8-|-------8-----8-----8---8-----0-------------/9------9-------------------9---|-7-7h9---7h9---7h9--7h9--0h2-/-4-/-5-/-7-----------------------------------|---------------------------------------------------------------------------|---------------------------------------------------------------------------|------------------------G
D
--------12--------12--------12-|----------------|--------------------------------12--------12--------12----|----------------|-15-15-15-15--14-14-1414----14b-------14b-------14b-------|-14bv-14bv-14bv-|-16-16-16-16--15-15-1515----------------------------------|----------------|----------------------------------------------------------|----------------|----------------------------------------------------------|----------------|-------------------------------------------------|------------------------------------------------------15-15-15-15----------|------------------------------------------------------16-16-16-16-14br12---|------------------------------------------------------------------------14-|------------------------------------------------------

----------------------|---------------------------------------------------------------------------|------------------------------------------------------Miki79
voltron17@hotmail.com
http://surf.to/miki79
http://members.xoom.it/miki79/
Tutto su Ligabue, chitarre e musica
[rit]
Ti ho vista stare dietro a troppo rimmel
dietro un'altra acconciatura
eri dietro una paura che non lasci mai.
Em
Quella che non sei
C
quella che non sei non sei
G
ma io sono qua
D
e se ti bastera'.
Quella che non sei e non sarai
a me bastera'.
C'e' un posto dentro te in cui fa freddo
e' il posto in cui nessuno e' entrato mai
quella che non...
Em
C
La la la la la
G
D
Em C G D
la la la la la la la la
Em
C
La la la la la
G
D
Em
C G D B7 Em
la la la la la la la laaa
+-+-+-+-+-+-+-+-+-+-+-+-+-+-+-+-+-+-+-+-+-+-+-+-+-+-+-+-+-+-+-+-+~~~~~~~~~~~~~~~~~~~~~~~~~~~~~
NON DOVETE BADARE AL CANTANTE
~~~~~~~~~~~~~~~~~~~~~~~~~~~~~
Trascrizione opera di Simone <simonep@sintec.it>
[Intro]
[Terzinato]
INTRO
Non doE|--5---5-5--3---3-3--0---0-0--0-----|
B|--3---3-3--1---1-1--1---1-1--1-1---|2 VOLTE
G|---------------------------------0-|
D|-----------------------------------|
A|-----------------------------------|
E|-----------------------------------|

G
Am7
C
-vete badare al cantante
G
Am7
C
tutta gente che viene e che va
D
Em
tutta gente che resta soltanto un momento
C
G
soltanto nel caso che il pezzo ci divertiAm7
D4
D
-ra'
E|-0--0-0------------|--3---3-3---2---2-2--|
B|-1--1-1---------1--|--3---3-3---3---3-3--|
G|-0--0-0---0--2-----|--2---2-2---2---2-2--|
D|-2--2-2------------|--0---0-0---0---0-0--|
A|-0--0-0------------|---------------------|
E|-------------------|---------------------|

non dovete badare al cantante


lo sappiamo la vita che fa
guarda solo la foto che c'e' sul giornale
e ci siamo capiti che razza di uomo sara'
C
CHORUS:

D
certe vite passano
Em
Bm
leggere come le canzoni
C
D
Am7
che dietro le canzoni vanno
C
D
certe vite sfumano
Em
Bm
veloci come le canzoni
C
D
Am7
che dentro le canzoni stanno

Bm7

Bm7

non dovete badare al cantante


quello li che si crede una star
quello li che si crede uno che lasci il segno
e invece una volta passato chi si voltera'
RIPETI CHORUS:
[adesso solo chitarra e voce]
G
Am7
C
non dovete badare al cantante
G
Am7
C
tutta gente che viene e che va... [entra il mitico organello hammond]
G

Am7

C (4 volte)
C
G
ultima volta:E|-0---0-0----------|-3------------|
B|-1---1-1----------|-3------------|
G|-0---0-0----------|-0------------|
D|-2---2-2----------|-0------------|

A|-3---3-3--3--2--0-|-2------------|
E|-3---3-3----------|-3------------|
+-+-+-+-+-+-+-+-+-+-+-+-+-+-+-+-+-+-+-+-+-+-+-+-+-+-+-+-+-+-+-+-+~~~~~~~~~~~~~~~~~~~~~~~
UN FIGLIO DI NOME ELVIS
~~~~~~~~~~~~~~~~~~~~~~~
[Intro]
[main riff]
e:--------------0--2--|--3------2----0--0--2--|
B:--------------0-----|--------------0--0-----|
G:--------------------|-----------------------|
D:--------------------|-----------------------|
A:--------------------|-----------------------|
E:--------------------|-----------------------|
Em Em7

A A4 A

A
Em
Em7
Ha le scarpe di serpente
A
e un brillante in pieno dente
Em
Em7
A
ed un figlio cui ha dato nome Elvis.
Em
Em7
Ha una stella su cui vive
A
su cui tutto quanto e' stile
Em
su cui tutto quanto
Em7
A
e' sotto il marchio Elvis.
Em
Em7
Ha una donna li' vicino
A
che lo fa sentir qualcuno
Em
Em7
anche se non sapra' mai
A
che cos'e' Elvis. Oh oh
[rit]
D
G
Brucia brucia la candela
Em7
A
brucia dai due lati
D
brucia prima
G
Em7
di una luce un po' piu' viva
C
Em Em9
e di piu', e di piu'.
[main riff]
Em
Em7
Ha un tatuaggio sulla spalla

A
dice: *Il rock non mi molla*
Em
Em7
A
mentre l'altro sopra il cuore dice: *Elvis*.
Em
Em7
Ha una Firebird originale
A
che dice di saper suonare
Em
Em7
A
ma che viene buona per suo figlio Elvis.
Em
Em7
Ed ha sempre occhiali scuri
A
dietro cui non si sa mai
Em
se piange o ride
Em7
A
come non si sa di Elvis.
[rit]
D
G
Brucia brucia la candela
Em7
A
brucia dai due lati
D
brucia prima
G
Em7
di una luce un po' piu' viva
C
Em Em9
e di piu', e di piu'.
[main riff]
[finale]
Em Em7 A (sfumando)
+-+-+-+-+-+-+-+-+-+-+-+-+-+-+-+-+-+-+-+-+-+-+-+-+-+-+-+-+-+-+-+-+~~~~~~~~~~~~~~~~~~~~~~~~~~~~~~~~~~~~~
IL CIELO E' VUOTO O IL CIELO E' PIENO
~~~~~~~~~~~~~~~~~~~~~~~~~~~~~~~~~~~~~
[Intro e riff principale] (con distorsione):
e:------------------------|-------------------------|
B:------------------------|-------------------------|
G:------------------------|-------------2--4--2--0--|
D:-------2----------0-----|-------2-----------------|
A:--0-------0--2-------2--|--3-------3--------------|
E:------------------------|-------------------------|
------------------------|-------------------------|
------------------------|-------------------------|
------------------------|-------------2--4--2--0--|
-------2----------0-----|-------2-----------------|
--0-------0--2-------2--|--3-------3--------------|
------------------------|-------------------------|
suonate piu' adagio (quasi non si sentono sul CD)
vvvvvvvvvvvvvvvvvvvvvvvvvvvvvvvvvvvvvvvvvvvvvvvvvvvvvv

--------------------------|--------------------------|
--------------------------|-----------------0--------|
--------0-----------0-----|--------0-----2-----2--0--|
-----2-----0-----0-----0--|-----0-----0--------------|
--0-----------2-----------|--3-----------------------|
--------------------------|--------------------------|
[oppure: stesse note ma suonate una corda sopra
(si vede che finalmente sto imparando le scale? :) ]
e:------------------------|-------------------------|
B:------------------------|-------------------------|
G:------------------------|-------------------------|
D:------------------------|-------------7--9--7-----|
A:-------7----------5-----|-------7--------------10-|
E:--5-------5--7-------7--|--8-------8--------------|
e:------------------------|-------------------------|
B:------------------------|-------------------------|
G:------------------------|-------------------------|
D:------------------------|-------------7--9--7-----|
A:-------7----------5-----|-------7--------------10-|
E:--5-------5--7-------7--|--8-------8--------------|
suonate piu' adagio (quasi non si sentono sul CD)
vvvvvvvvvvvvvvvvvvvvvvvvvvvvvvvvvvvvvvvvvvvvvvvvvvvvvv
--------------------------|--------------------------|
--------------------------|--------------------------|
--------------------------|--------------------------|
--------5-----------5-----|--------5-----7--9--7-----|
-----7-----5-----5-----5--|-----5-----5-----------10-|
--5-----------7-----------|--8-----------------------|
[main riff]
[Questo lo scrivo solo cosi', tanto avete capito come
va no?]
G
D
------------------------|------------------------|
-------1--0-------------|---------------0--------|
--0----------2--0----2--|------2--0--2-----2--0--|
------------------------|------------------------|
------------------------|------------------------|
------------------------|------------------------|
Am7
G
C
D
--------------------------|--------------------------|
--------------------------|--------------------------|
--------0-----------0-----|--------0-----2--4--2--0--|
-----2-----0-----0-----0--|-----0-----0--------------|
--0-----------2-----------|--3-----------------------|
--------------------------|--------------------------|
Altra versione (grazie a Fulvio):
e:------------------------|---------------------|
B:------------------------|---------------------|
G:------------------------|-------------2-4-2-0-| X2
D:-------2----------0-----|-------2-------------|
A:--0-------0--2-------2--|--3-------3----------|

E:------------------------|---------------------|
e:--------------------------|----------------------|
B:--------------------------|----------------------|
G:--------0-----------0-----|--------0-----2-4-2-0-|
D:-----2-----0-----0-----0--|-----0-----0----------|
A:--0-----------2-----------|--3-------------------|
E:--------------------------|----------------------|
e:--------------------|-----------------|
B:--0---1-0---------3-|-----------------|
G:--0--------2-0----2-|-0-2-4-2-0-------|
D:--------------------|-----------------|
A:--------------------|-----------------|
E:--------------------|-----------------|
e:--------------------------|----------------------|
B:--------------------------|----------------------|
G:--------0-----------0-----|--------0-----2-4-2-0-|
D:-----2-----0-----0-----0--|-----0-----0----------|
A:--0-----------2-----------|--3-------------------|
E:--------------------------|----------------------|
D
G
D
Il mio amico Remo e' cotto
Am7 G
C
D
son troppe sere che va troppo in la'
G
D
e ci va di brutto
Am7
G
C
D
troppe sveglie con un cerchio cane
Em
C
troppe fughe
Am7
C
Bm
da dei letti solo per non dire un ciao
C
per non baciare mai.
Am7
G
C
Se il cielo e' vuoto o il cielo e' pieno
D
Am7
C
D
G D
lui dice che ci guardera' da solo poi.
[main riff]
D
G
D
Il mio amico Cico e' cotto
Am7
G
C
D
non l'ho mai beccato sciolto o ciucco
G
D
e' cosi' corretto
Am7
G
C
D
che ogni tanto io lo invio a cagare
Em
C
ma bene o male
Am7
fra il rosario e il Valium
C
Bm
io lo so cos'ha
C
di cui non mi dira'.
Am7
G
C

Am7 G

C D

Se il cielo e' vuoto o il cielo e' pieno


D
Am7
G
C
D
G
il giorno che gli viene un dubbio crepera'.
[main riff]

Am7 G

C D

Am7
G
C
D
G D Am7 G C D
Se il cielo e' vuoto o il cielo e' pieno________________
[solo]
Em C Am7 G

Bm
Sotto il cielo di Bologna
C
fra felicita' e vergogna
Em
C
Am7 C
c'e' gia' la spinta per vivere.
Bm
Sotto il cielo di Dublino
C
Cairo, Bogota' e Pechino
Em
C
Am7 C
c'e' gia' il motivo per vivere
G
D
Io non so se sono cotto
Am7
C
certi giorni non mi basta
D
G
D
cio' vedo e sento e tocco
Am7
G
C
D
pero' so che non so stare fermo
C
e so che cerco
Am7
C
Bm
e so che tante volte trovo e perdo qui
C
fra corpi solidi
Am7
G
C
Se il cielo e' vuoto o il cielo e' pieno
D
Am7
G
C
D
il giorno che ci guarderemo si sapra'
[main riff]
sfuma e finisce in G
+-+-+-+-+-+-+-+-+-+-+-+-+-+-+-+-+-+-+-+-+-+-+-+-+-+-+-+-+-+-+-+-+~~~~~~~
LEGGERO
~~~~~~~
[NOTA: la trascrizione non e' mia ma mi pare corretta.
Un unico appunto: trovo che il FA7magg. suoni meglio
con questa diteggiatura:
F7+ 003210
fate voi :) ]
Date: Mon, 18 May 1998 19:35:29 +0200
From: dpastori@sintec.it (Domenico Pastori)
Subject: l/ligabue_luciano/leggero.crd

Ecco quella che secondo me e' la piu' bella canzone di Ligabue,


perfetta da eseguire acustica
C = DO
G = SOL
Em= MIm
F = FA
Am =LAm
F7+=FA7+
Em7=MIm7
INTRO: C G

diteggiatura: a sinistra il mi basso e a destra


032010
il mi cantino
320002
022000
133211
002210
112211
022030
Em F (x2)

C
G
Em
F
Ci son macchine nascoste e pero' nascoste male
e le vedi dondolare al ritmo di chi e' li dentro per ]
potersi consolare ]
godendo sui clacson, fra i fantasmi di Elvis
ci son nuvole in certe camere e meno ombrelli di quel ]
che pensi ]
lo sapete cos'ha in testa, il mago Walter
F7+
quando il trucco gli riesce e non pensa piu'a niente?
C
G
Em
F
I ragazzi sono in giro e, certo, alcuni sono in sala giochi
e l'odore dei fossi forse lo riconoscono in pochi
Am
G
e le senti le vene piene di cio' che sei
Em7
F
e ti attacchi alla vita che hai
C G
Em
F
CHORUS: leggero nel vestito migliore
senza andata ne' ritorno senza destinazione
leggero nel vestito migliore
nella testa un po' di sole ed in bocca una canzone
C G

Em F

(x2)

C
G
Em
F
Dove passera' la banda col suo suono fuori moda
col suo suono un giorno un po' pesante un giorno invece ]
troppo leggero? ]
Mentre Key si sbatte perche' le urla la vena
pensi che sei fortunato: ti e' mancato proprio solo un pelo
e ti vedi con una che fa il tuo stesso giro
F7+
e ti senti il diritto di sentirti leggero
C
G
Em
F
C'e' qualcuno che urla per un addio al celibato
per una botta di vita con una troia affittata
Am
G
E le senti le vene piene di cio' che sei
Em7
F
e ti attacchi alla vita che hai
CHORUS

C G

Em F

ad libitum

ciao a tutti da Simone


dpastori@sintec.it
==================================================================
DALL'ALBUM TRA PALCO E REALTA'
==================================================================
[NOTA: Questa sezione contiene solo le canzoni nuove. Le versioni
Live delle vecchie, se disponibili, sono nelle sezioni dedicate
agli album]
~~~~~~~~~~~~~~~~~~~
TRA PALCO E REALTA'
~~~~~~~~~~~~~~~~~~~
Dall'album *Tra palco e realta'*
Words and music: Ligabue
Trascrizione: Davide Pari <tigers@europe.com>
con il fondamentale apporto di THE SUN per alcune
correzioni e quasi tutte le TAB
Inoltre alcuni accordi poco comuni usati sono elencati di seguito
con accanto la diteggiatura:
A5
A4/7
C7+
C9
A9

x022xx
002233
032000
032030
002200

*--------------------------------------------------------------------*
Intro: nella versione originale credo sia usato un echo con un delay
abbastanza basso, nella versione acustica invece Mel la suona con una
pennata doppia
Accordi: A5 G C9 C9
[la TAB che segue e' di THE SUN]
1/2 barre' 14
---------15--------------15--------------14--------------14-------------17------17------17------17------17------17------17------17-----14--------------14--------------14--------------14----------------------------------------------------------------------------------------------------------------------------------------------------------------------------------------------------------------------------------15--------------15--------------15--------------15-------------17------17------17------17------17------17------17------17-----14--------------14--------------14--------------14-------------------------------------------------------------------------------------------------------------------------------------------------------------------------------------------------------------------------riff iniziale:
-------------------------------------------------------------------------------------------------------------------------------------------

----7--5p4--------7--5p4-----4--7--5p4--------4--4--4--5--5--5--4-----5----------7--5----------7-------------7--5-------------------------------------------------------------------------------------------------------------------------------------------------------------------Con la chitarra di Mel che suona i bassi


sotto alcune strofe (cfr. la prima) c'e' questo riff:
(nella versione live con uno wah-wah)
e:----------B:----------G:--4/5/7\2-- (con slide molto lento)
D:----------A:----------E:----------C
G
Am7
Abbiamo facce che non conosciamo
G
C
ce le mettete voi in faccia pian piano
G
Am7
e abbiamo fame di quella fame
G
C
che il vostro urlo ci regalera'
G
Am7
E abbiamo l'aria di chi vive a caso
G
C
l'aria di quelli che paghi a peso
G
Am7
e abbiamo scuse che anche se buone
G
C7+
non c'e' nessuno che le ascoltera'
[NOTA: nella parte seguente e' meglio suonare il LAm7 cosi':
Am7 002213
facendo la 7.a sul cantino col mignolo, in modo da tenere nell'accordo
il la sulla terza corda che fa parte del cantato.
In alternativa potete suonare in semplice A]
grazie a THE SUN per la correzione.
C
C9
G
E poi abbiamo gia' chi ci porta
Am7
G
fino alla prossima citta'
C9
G
ci mette davanti a un altro microfono
Am7
G
che qualche cosa succedera'
D
Siam quelli la'
D4 D
Siam quelli la'
Am
Siam quelli la'
C
D
G
Quelli tra palco e realta'
A7/4
ta ta rarara

G
ta ta rarara
ta ta rarara
C9
C
G
Quelli tra palco e realta'
A7/4
ta ta rarara
G
ta ta rarara
C
ta ta rarara
C
G
Am7
Abbiamo amici che neanche sappiamo
G
C
che finche' va bene ci leccano il culo
G
Am7
e poi abbiamo casse di Maalox
G
C
per pettinarci lo stomaco.
G
Am7
Abbiamo soldi da giustificare
G
C
e complimenti per la trasmissione
G
Am7
e abbiamo un ego da far vedere
G
C7+
a uno bravo davvero un bel po'
C
C9
G
E poi abbiamo chi ci da' il voto
Am7
G
ci vuol spiegare come si fa:
C9
G
*e' come prima? No si e' montato*
Am7
G
ognuno sceglie la tua verita'
D
Siam quelli la'
D4 D
Siam quelli la'
Am
Siam quelli la'
C
D
G
Quelli tra palco e realta'
A7/4
ta ta rarara
G
ta ta rarara
ta ta rarara
C9
C
G
Quelli tra palco e realta'
A7/4
ta ta rarara
G
ta ta rarara
ta ta rarara

[Ancora grazie a THE SUN per la TAB]


--------------------------------------------------------------------------------------------------------------------------0-----------------------------------2-----2--0------------------------------------------3--0--------------------b (bending)
Em7
D
C9
E c'e' chi non si sbaglia mai:
G
D
Em7
ti guarda e sa chi sei.
D
C9
E c'e' chi non controlla mai
G
D
dietro la foto.
Em7
E c'e' chi
G
nemmeno un
G
nemmeno un

D
non ha
D
dubbio
D
dubbio

C9
avuto mai
C9
mai,
A9
mai

Solo: C9 G Am7 G C9 G Am7 G D


[TAB di Alessandro Marini]
[Solo 1]DO
SOL/SI
LAm
SOL/SI
DO
SOL
e:------------------|------------------|-----------------|-------------|
B:------------------|------------------|-----------------|-------------|
G:------------------|------------------|-----------------|-------------|
D:-5-----------5----|-5-----------5----|-5-----4-4~-----2|-2--0--------|
A:---------5^7---5^7|---------5^7---5^7|-----------------|-------------|
E:------------------|------------------|-----------------|-------3--5--|
1 2 3 .
4 .
1 2 3 .
4 .
1 . 2 . 3 . 4 .
1 2 3 4
DO
SOL/SI
LAm
SOL
RE
e:-----------------|--------------|-----------------|---------|---------|
B:-----------------|--------------|-----------------|---------|---------|
G:---------------4-|--------------|-----------------|---------|---------|
D:-----0-2--/5-----|-5~-----------|-----5-5-------5-|-4~------|/7~------|
A:-2^3-------------|------------5-|-5-7-------5-7---|---------|---------|
E:-----------------|--------------|-----------------|---------|---------|
1 . 2 . 3 . 4 .
1 2 3 4 .
1 . 2 . 3 . 4 .
1 2 3 4
1 2 3 4
si ripete l'intro: A5 G C9
G
Am7
Abbiamo andate e ritorni violenti:
G
C
o troppo accesi o troppo spenti.
G
Am7
E non abbiamo chi ci fa sconti
G
C7+
che quando e' ora si salutera'.
C

C9

E ce l'abbiamo qualche speranza


Am7
G
forse qualcuno ci ricordera'
C9
G
e non solamente per le canzoni
Am7
G
per le parole o la musica
D
Siam quelli la'
D4 D
Siam quelli la'
Am
Siam quelli la'
C
D
G
Quelli tra palco e realta'
A7/4
ta ta rarara
G
ta ta rarara
ta ta rarara
C9
C
G
Quelli tra palco e realta'
A7/4
ta ta rarara
G
ta ta rarara
ta ta rarara
C
D
C9
Quelli tra palco e realta'
G
ta ta rarara
Am7
ta ta rarara
ta ta rarara
G
C9
G Am7 G
Quelli tra palco e realta'
+-+-+-+-+-+-+-+-+-+-+-+-+-+-+-+-+-+-+-+-+-+-+-+-+-+-+-+-+-+-+-+-+~~~~~~~~~~~~~~~~~~~~~~~~~~~~~~
IL GIORNO DI DOLORE CHE UNO HA
~~~~~~~~~~~~~~~~~~~~~~~~~~~~~~
Riff principale (usato nell'intro e sotto alcune delle strofe):
(Chitarra acustica leggermente distorta)
G
Bm C
Am G4/B C
D4sus9
e:-------------x--------------------------------------B:-------------3----------------------1---1---1---3---G:-4--5--4-----4---4-5-4---7--------------------------D:----------5--4---------5---5------------------------A:-------------2----------------5\0-0---2---3---5-----E:-------------x--------------------------------------^
|
lasciar suonare il Bm
(il Bm secondo me ci sta bene solo qui, nella strofa uso sempre il D)
[A me non pare, cmq... fate voi]

G4/B:x20010 non so se il nome dell'accordo e' proprio giusto, comunque


D4sus9: x54030 anche questo non so se e' proprio giusto
G
Quando tutte le parole
D
sai che non ti servon piu'
C
quando sudi il tuo coraggio
Am
G4/B C D4sus9
per non startene laggiu'.
(questo per suonarlo con una sola chitarra, senza il riff - l'ho visto
fare
una volta al Liga - ma anche se lo fai sempre non ci sta male)
G
Quando tiri in mezzo Dio
D
o il destino o chissa' che
C
che nessuno te lo spiega
Am
G4/B C D4sus9
perche' sia successo a te.
D
Quando tira un po' di vento
C
che ci si rialza un po'
G
e la vita e' un po' piu' forte
(dopo la prima strofa, con due chitarre facci questo)
e -3-----3-2-----2-3-----3-2-------B ---3-------3-------3-------3-----G -----0-------0-------0-------0---D
del tuo dirle 'grazie no'
(qui io faccio cosi': Re con mezzo barr sul secondo e col passo da
xx0232 a
xx0432 a xx0532
e torno su xx0232)
C
quando sembra tutto fermo
(qui per seguire la chitarra ci vorrebbe un riff del genere)
D ----------------0--------A --0--2--3----3-----0-----E -------------------------(per tenere l'accordo io faccio un passaggio veloce sul Do, passando da
x02010 a x22010 a x32010. Sul re invece me ne frego, tanto ci viene da
solo, all'incirca)
D
la tua ruota girera'
C
D
G
sopra il giorno di dolore che uno ha.
Tu tu tu tu tu tu...

D C Am
G
Quando indietro non si torna
D
quando l'hai capito che
C
che la vita non e' giusta
Am
G4/B C D4sus9
come la vorresti te
G
quando farsi una ragione
D
vorra' dire vivere
C
te l'han detto tutti quanti
Am
G4/B C D4sus9
che per loro e' facile
D
quando batte un po' di sole
C
dove ci contavi un po'
G
e la vita e' un po' piu' forte
D
del tuo dirle 'ancora no'
C
quando la ferita brucia
D
la tua pelle si fara'
C
D
G
Sopra il giorno di dolore che uno ha.
D C
Tu tu tu tu tu tu...
Am
G D C
Tu tu tu tu tu tu...
Am7
Tu tu tu tu tu tu...
(ogni linea verticale delimita una battuta)
Solo: | D9 | C9 | G G7+ | G G7+| C9 | D | D | C
[Solo gentilmente fornito da Francesco D'Offizi
fdoffizi@tin.it
http://space.tin.it/musica/sdoffizi/]
E||----------------0-------|-------------------------------|
B||-----------0---------0--|--1-0---0----------------------|
G||------------------------|------2---2-0---0--------------|
D||--------0---------------|--------------2---2-0----------|
A||--0--2------------------|----------------------3----2-0-|
E||------------------------|-------------------------------|
---------------------------|-------------------------|
---------------------------|-------------------------|
----------0---0-----0--2-0-|------0---2--------0--2--|
--0---2---------0-2--------|--2------------0-2-------|
---------------------------|-------------------------|
---------------------------|-------------------------|
-----3-------3-------3----|-----2--------5--------5--|

--0-------0-------0-----0-|----------0--------0------|
--------------------------|--------------------------|
--------------------------|--------------------------|
--------------------------|--------------------------|
--------------------------|--------------------------|
--8----------------------------|-----------------------------|
-----8--6-6-4---6---4-5--------|-----------------------------|
--------------5---5-----5-3-0--|--0-2--2--2-0-2--2--2-0-2--2-|
-------------------------------|-----------------------------|
-------------------------------|-----------------------------|
-------------------------------|-----------------------------|
----------------3--5--7--|------------------------|---------------3--5-7--|
--0--------0-------------|----------0-------------|----------0------------|
-----0--2----------------|--------------0-2--0----|----0--2---------------|
-------------------------|----5--7----------------|-----------------------|
-------------------------|------------------------|-----------------------|
-------------------------|------------------------|-----------------------|
-------5--7----------|---------------------5--|----5------------0-3--|
----8----------------|----------0-----8-------|---------------3------|
---------------------|-------------7----------|----------------------|
---------------------|----5--7----------------|----------------------|
---------------------|------------------------|----------------------|
---------------------|------------------------|----------------------|
--7----5-5-3-0-5-0-3----------|----------------------|------0---3---5------||
--8---------------------------|----------------------|--3------------------||
----------------------2-0-----|----------2-----------|---------------------||
------------------------------|------2-------2-------|---------------------||
--------------------------3-2-|--0-------------------|---------------------||
------------------------------|----------------------|---------------------||
G
Quando il cuore senza un pezzo
D
il suo ritmo prendera'
C
quando l'aria che fa il giro
Am
G4/B C D4sus9
i tuoi polmoni becchera'
G
quando questa merda intorno
D
sempre merda restera'
C
riconoscerai l'odore

Am
G4/B C D4sus9
perche' questa e' la realta'
D
quando la tua sveglia suona
C
e tu ti chiederai che or'e'
G
che la vita e' sempre forte
D
molto piu' che facile
C
quando sposti appena il piede
D
li' il tuo tempo crescera'
C
D
G
Sopra il giorno di dolore che uno ha.
D C Am
Tu tu tu tu tu tu...
G
D C
Tu tu tu tu tu tu...
Am7
Tu tu tu tu tu tu...
Solo: G D C Am7 (x4)
C G
[Solo]
[grazie a Francesco D'Offizi]
E||------------------------|-----------------------------------|
B||------------------------|-----------------------------------|
G||----------------9-------|-----------------------------------|
D||-----------9---------9--|--10-9-7-9-7-----------------------|
A||--------5---------------|-------------10-7-10-7-------------|
E||--5--7------------------|-----------------------10-8----7-5-|
---------------------------------|----------------------------|
---------------------------------|----------------------------|
---------------------------------|----------------------------|
----------------------------7----|-----------7-------------7--|
-------7---10---10----7-10----10-|--7---10-----------7-10-----|
--10---------------10------------|----------------10----------|
--------------------------|----------------------------|
-----8-------8-------8----|-----7--------10--------10--|
--------------------------|----------------------------|
--9-------9-------9-----9-|----------9---------9-------|
--------------------------|----------------------------|
--------------------------|----------------------------|
--8-----------------------------------|--------------------------------|
-----8--------------------------------|--------------------------------|
--------10-10-8----10----8-9----------|--------------------------------|
----------------10----10-----10-8-----|-----7--7--7----7--7--7----7--7-|
----------------------------------10--|--10---------10---------10------|
--------------------------------------|--------------------------------|
----------------------------|---------------------------|
-----------------8--10--12--|---------------------------|
----------------------------|---------------------------|
--9------7--9---------------|--------7--9------7--------|

-----10---------------------|----10---------10----10----|
----------------------------|---------------------------|
---------------------------|-----------------------|-------------------------|
----------------8--10--12--|----8--10--12----------|-----------------8---10--|
---------------------------|-----------------------|--------------7----------|
--------7--9---------------|-----------------------|--------7--9-------------|
----10---------------------|-----------------------|----10-------------------|
---------------------------|-----------------------|-------------------------|
-----------------------|--7----5-5-3-0-5-0-3----------|---------------------|
----10--------------8--|--8---------------------------|---------------------|
----------------7-9----|----------------------2-0-----|----------2----------|
-----------------------|------------------------------|------2-------2------|
-----------------------|--------------------------3-2-|--0------------------|
-----------------------|------------------------------|---------------------|
G
------0---3---5-------|--3----------------||
--3-------------------|--3----------------||
----------------------|--4----------------||
----------------------|--5----------------||
----------------------|--5----------------||
----------------------|--3----------------||
Francesco D'Offizi
gtrman@tin.it

Piu' preciso di cosi' non mi riusciva :)


Alla prox
THE SUN
+-+-+-+-+-+-+-+-+-+-+-+-+-+-+-+-+-+-+-+-+-+-+-+-+-+-+-+-+-+-+-+-+~~~~~~~~~~~~~~~~~~~~~~
ULTIMO TANGO A MEMPHIS
~~~~~~~~~~~~~~~~~~~~~~
[Trascrizione completa di Alessandro Marini]
[Intro/Riff]SI
LA
SI
LA
e:-----------------|-----------------|-----------------|-----------------|
B:-4-4---------5-5-|-2-2-------------|-4-4---------5-5-|-2-2-------------|

G:-4-4---------4-4-|-2-2-------------|-4-4---------4-4-|-2-2-----------2-|
D:-4-4-------------|-2-2-------------|-4-4-------------|-2-2--------2242-|
A:-----------------|-----------------|-----------------|-----------------|
E:-----------------|-----------------|-----------------|-----------------|
| 1 . 2 . 3 . 4 . | 1 . 2 . 3 . 4 . | 1 . 2 . 3 . 4 . | 1 . 2 . 3 . 4 .
|
e:-----------------|-----------------|-----------------|-----------------|
B:----------)------|----------)------|--)--------------|-----------------|
G:---------4-------|-------2-6-------|-4---------------|-2---1-----------|
D:-----------------|-----------------|-----------------|---------2-------|
A:-----------------|-----------------|-----------------|-----------------|
E:-----------------|-----------------|-----------------|-----------------|
SI
LA
e:-----------------|-----------------|
B:-4-4---------5-5-|-2-2-------------|
G:-4-4---------4-4-|-2-2-------------|
D:-4-4-------------|-2-2-------------| [Fill 1]MI(4)
A:-----------------|-----------------|-----------------|----------------|
E:-----------------|-----------------|-----------------|----------------|
| 1 . 2 . 3 . 4 . | 1 . 2 . 3 . 4 . |-2-1-----2-1-----|-2-1------------|
e:-----------------|-----------------|-----2-------2---|-----2---2-1----|
B:----------)------|----------)------|-----------------|-------------2--|
G:---------4-------|-------2-6-------|-----------------|----------------|
D:-----------------|-----------------| 1 . 2 . 3 . 4 . | 1 . 2 . 3 . 4 .
A:-----------------|-----------------|
E:-----------------|-----------------|
MI
Camminero'
LA
fuori e dentro di me
SI
LA
MI
fuori da chi mi avete chiesto
MI
E vi lascero'
LA
in giro i giochi che ho
SI
LA
MI4 [Fill 1]
voi fate pure, io intanto non cresco
LA
MI
[Fill 2]
[Rit] Ultimo tango a Memphis,

[Fill 2]
e:-------------------------|----------------------|
B:12\10--10-10-10\9--9--9--|-9\7--7--7--7\5--5--5-|
G:-------------------------|----------------------|
D:-------------------------|----------------------|
A:-------------------------|----------------------|
E:-------------------------|----------------------|
SI
c'e' chi non va piu' via non va piu' via
LA
MI
Pensi di avermi, pensi
LA
|SI
|LA
|SOL#m |FA#m
senza averne un'idea

|MI

Camminero' fino a quando ce n'ho


conosco il buio ed altri posti
E mi slaccero' quella cintura che so
che ti fa dire "ci siamo gia' visti?"
[Rit] Ultimo tango a Memphis,
c'e' chi non va piu' via non va piu' via
Mi hanno voluto Elvis,
per la loro allegria
LA
SI
Ho un magazzino pieno
LA
di sogni gia' fatti
LA
SI
alcuni ancora buoni,
LA
MI
parecchi son rotti ma ci
MI
MI(4)
sono, eh ci sono
[Riff]
[Rit]

|SI

|LA

|SI

|LA

|SI

|LA

|MI(4)

Ultimo tango a Memphis,


c'e' chi non va piu' via non va piu' via
Pensi di avermi, pensi
senza averne un'idea
Ultimo tango a Memphis,
c'e' chi non va piu' via non va piu' via
Mi hanno voluto Elvis,
MI [Fill 1]
per la loro allegria
( e si va
MI [Fill 1]
via
( e si va
MI [Fill 1]
via

==================================================================
DALL'ALBUM *RADIOFRECCIA* (1998)
==================================================================
~~~~~~~~~~~~~~~~~~
HO PERSO LE PAROLE
~~~~~~~~~~~~~~~~~~

[Lo devo ammettere: una buona parte delle TAB e' stata fortemente
ispirata dal messaggio che Palma Fulvio ha postato su
rec.music.makers.guitar.tablature, con alcune correzioni ed
aggiunte mie]
C9:
Dm9:
F9:
Bb9:

032030 opp 032033


x00230
x03213
113311

[Dopo attento esame delle riprese del Night Express, ho stabilito


che il Liga fa questi accordi:
C: 332010
F7+: x03210 (al posto di tutti i F9)
e nel ritornello non suona un C9 come indicato ma un semplice C]
[Intro]
e|-------------------|
B|----3--------3-----|
G|*---2--2p0h2----2-*|
D|*-0------0--------*|
A|-------------------|
E|-------------------|

(n volte)

[Riff principale]
e|---------|
B|-10p8----|
G|------7--|
D|---------|
A|---------|
E|---------|
Dm9
Bb9 C
Ho perso le parole
F9
C
Dm9
eppure ce le avevo qua un attimo fa
Bb9
C
dovevo dire cose, cose che sai,
F9
C
Dm9
che ti dovevo, che ti dovrei...
Bb9 C
Ho perso le parole
F9
C
Dm9
puo' darsi che abbia perso solo le mie bugie.
Bb9
C
Si son nascoste bene, forse pero'
F9
C
semplicemente non eran mie.
Bb9
Credimi
C
C9
credici un po'
Dm9
metti insieme un cuore
C
Am

prova a sentire e dopo


Bb9
credimi
C
C9
Dm9
credici un po' di piu'
C
Am
Bb9
di piu' davvero...
Bb9
e|-1-------------------|
B|-1-------------------|
G|-3----------3p2------|
D|-3------3-------3-5--|
A|-1----1---1----------|
E|-1-------------------|
^
| Lasciar suonare l'accordo
[Versione alternativa di Marco]
E
B
G
D
A
E

//----------------|
||----------------|
||--------3-2-----|
||----0-3-----3/5-|
||1-3-------------|
\\----------------|

Ho perso le parole
vorrei che ti bastasse solo quello che ho
io mi faro' capire anche da te
se ascolti bene, se ascolti un po'.
Sei bella che fai male,
sei bella che si balla solo come vuoi tu.
Non servono parole, so che lo sai
le mie parole, non servon piu'.
Credimi
credici un po', sei su
Radio Freccia,
guardati in faccia e dopo
credimi
credici un po' di piu'
di piu' davvero...
[Assolo]
From Alex De Large
Questa e' la parte di Mel Previte prima del solo di Poggipollini:
Dm
Bb
C
I----------------I-------------I----------------I
I----------------I-------------I----------------I
I-7--------------I-3-----------I-5/10/5---------I
I----------------I-------------I----------------I
I----------------I-------------I----------------I
I----------------I-------------I----------------I
Capitan Fede:
Dm
Bb
C
I-------I---------------------------------I
I-x-x---I---------------------------------I

I-x-x---I---------------------------------I
I-x-x---I---------------------------------I
I-x-x---I-5-----5/12/8-----8/12/3---------I
I-------I---------------------------------I
~
~
~
F
C
I-------13-----15--13-------------I
I-11/13----13---------15----------I
I---------------------------------I
I---------------------------------I
I---------------------------------I
I---------------------------------I
~
Dm
Bb
C
I---------------------------------I
I---------------------------------I
I---------------------------------I
I---------------------------------I
I-5-----5/12/8-----8/12/3---------I
I---------------------------------I
~
~
~
F
C
I-------13-----15b17r15-13--15b17r15-13-----I
I-11/13----13----------------------------15-I
I-------------------------------------------I
I-------------------------------------------I
I-------------------------------------------I
I-------------------------------------------I
~
Per ansie, dubbi, incertezze contattatemi.
Alex De Large <dedalus@exploit.it>
[Accordi della strofa...]
Ho perso le parole
oppure sono loro che perdono me
lo so che dovrei dire cose che sai
che ti dovevo, che ti dovrei.
Ho perso le parole
vorrei che mi bastasse solo quello che ho
le posso far capire anche da te
se ascolti bene, se ascolti un po'.
Credimi
credici un po'
metti insieme un cuore
prova a sentire e dopo
credimi
credici un po' di piu'
di piu' davvero
Credimi
credici un po', sei su
Radio Freccia
guardati in faccia e dopo
credimi
credici un po' di piu'
di piu' davvero...
+-+-+-+-+-+-+-+-+-+-+-+-+-+-+-+-+-+-+-+-+-+-+-+-+-+-+-+-+-+-+-+-+-

~~~~~~~~~~~~~~~~~~~~~~~~~~~~~
METTI IN CIRCOLO IL TUO AMORE
~~~~~~~~~~~~~~~~~~~~~~~~~~~~~
Testo di Bomarn <bomarn@usa.net>
Accordi di Giorgio <tina@tqs.it>
TAB mia (con l'aiuto del MIDI)
E2: 022102
[Intro]
Il riff principale dovrebbe essere cosi':
B
e|-------2-------------2--------|
B|---------4-------------4------|
G|------------------------------|
D|-----4-4---4-------4-4---4----|
A|--2----------2--2----------2--|
E|------------------------------|
[Versione di Marco (ormai si riconosce dal capotasto)]
Intro:
E
B
G
D
A
E

//------------|--------------|
||------------|--------------|
||------------|--------------|
||------------|--------------| X 3
||--9-----9---|--9-----9-----|
\\7---7-7---7-|9---9-9---9-7-|

B
F#/A#
Hai cercato di capire ma non hai capito ancora
G#m7
F#
se di capire si finisce mai
E2
B
hai provato a far capire con tutta la tua voce
F#/A#
G#m7
anche solo un pezzo di quello che sei
con la rabbia ci si nasce o ci si diventa
e tu che sei un esperto non lo sai
perche' quello che ti spacca e ti fa fuori dentro
forse parte proprio da chi sei
E
B
metti in circolo il tuo amore
F#/A#
G#m7
come quando dici perche' no
metti in circolo il tuo amore
come quando ammetti non lo so
come quando dici perche' no
quante vite non capisci e quindi non sopporti
perche' ti sembra non capiscan te
quanti generi di pesci e che correnti forti
perche' 'sto mare sia come vuoi te
metti in circolo il tuo amore
come fai con una novita'

metti in circolo il tuo amore


come quando dici si vedra'
come fai con una novita'
e ti sei opposto all'onda ed e' l che hai capito
che piu' ti opponi e piu' ti tira giu'
e ti senti ad una festa per cui non hai l'invito
per cui gli inviti adesso falli tu
metti in circolo il tuo amore
come quando dici perche' no
metti in circolo il tuo amore
come quando ammetti non lo so
[versione alternativa, forse piu' facile
per i principianti]
Capotasto in III posizione
Intro: do/ sol/ la-/ sol/
Cos per tutta la canzone:
do/ sol/ la-/ sol/
+-+-+-+-+-+-+-+-+-+-+-+-+-+-+-+-+-+-+-+-+-+-+-+-+-+-+-+-+-+-+-+-+~~~~~~~~~~~~~
SIAMO IN ONDA
~~~~~~~~~~~~~
[NdT: Il file mi e' giunto in formato rtf. Non ho ancora controllato
se gli accordi sono posizionati esattamente anche in formato testo,
se non tornano copiate ed incollate il testo in Word (o simili) e
visualizzatelo in Times New Roman]
Suonando sopra al disco, ho visto che l'accordo iniziale
e' in fa diesis, ma questo e tutti quelli che vengono
dopo rendono difficile gli "assolini" con le ultime tre corde.
Per cui ho rispolverato il caro vecchio do maggiore.
Vedete un po' se ci capite qualcosa:
(per due volte) do, sol, re minore (oppure fa, come vi piace di piu'), do
(stacco) re minore, fa, do, fa, sol
(di nuovo) do, sol, re minore (oppure fa, come vi piace di
piu'), do
(ritornello) la minore, mi minore, sol, fa, la minore.
(per finire) do, sol, re minore (oppure fa, come vi piace di piu'), do
E' un crittogramma pi che un brano musicale !!!!
Adesso qualcosa di pi semplice: "Siamo in onda"!
Anche qui ho semplificato gli accordi, visto che iniziano con un mi
bemolle, portando tutto a re.
Buon divertimento, e fatemi avere eventuali osservazioni.
SIAMO IN ONDA
D
Se ne frega di serrande, di finestre sempre chiuse
G
Di sistemi troppo grandi di destini gia' decisi
Bm
E finisce sotto letti
A
G

Dove si balla da un po'


D
Sembra quello che non vince il suo istinto di guardone
G
Ha la faccia come il culo di chi si fa perdonare
Bm
A
G
D
G
A6
D
Sembra il suono di una voce che parte proprio da te, che parte proprio da
te.
D
RIT) Siamo in onda di' qualche cosa
G
Tieni l'onda tienila accesa
Bm
A
G
A9
D
Prendi l'onda finche' ti passa di li', finche' ti passa di li'
2) E' leggero come l'aria, anzi forse piu' leggero
e finisce in qualche stereo che qualcuno ha "preso in nero"
e finisce nella vita di chi dice: e io che ne so? Chi dice: io che ne so?
RIT) (come sopra)
+-+-+-+-+-+-+-+-+-+-+-+-+-+-+-+-+-+-+-+-+-+-+-+-+-+-+-+-+-+-+-+-+~~~~~~~~~~~~~~~~~~~
MEZZANOTTE DI FUOCO
~~~~~~~~~~~~~~~~~~~
Per eventuali correzioni , scrivetemi a trebbia41@hotmail.com
A--0000-3-5-7-10-12----0000-3-5-7-10-5--A--0000-3-5-7-10-12---15-12-10--7-10-12-5-7A--0000-3-5-7-10-12----0000-3-5-7-10-5--D------------------------------------12-10------------------------------A--0000-3-5-7-10-12--15-12-------10-12-5-7-----------------B--0-----0-----0----G----2-----2-----2--D------2-----2------A------------------0+-+-+-+-+-+-+-+-+-+-+-+-+-+-+-+-+-+-+-+-+-+-+-+-+-+-+-+-+-+-+-+-+~~~~~~~~~~~~
PESCE SILURO
~~~~~~~~~~~~
[Tab iniziale e finale]
TAB di Maurizio Urbani
re
sol
re sol
re
sol re
sol
//--2---3-3-3--2--3-3-3---2-2-2--3-3-3--2--3-3-3----------------------------\\--3---0-0-0--3--0-0-0---3-3-3--0-0-0--3--0-0-0-----------------------------

//--2---0-0-0--2--0-0-0---2-2-2--0-0-0--2--0-0-0--Qualcuno termini la
canzone\\------0-0-0-----0-0-0----------0-0-0-----0-0-0----------------------------//------2-2-2-----2-2-2----------2-2-2-----2-2-2----------------------------\\------3-3-3-----3-3-3----------3-3-3-----3-3-3----------------------------=20
Slide velocissimo su tutti i passaggi tra RE-SOL e molta velocita' sui
SOL
By Maurizio
+-+-+-+-+-+-+-+-+-+-+-+-+-+-+-+-+-+-+-+-+-+-+-+-+-+-+-+-+-+-+-+-+~~~~~~~~~~~~~~~~~~~~~~~
IL MIO NOME E' MAI PIU'
~~~~~~~~~~~~~~~~~~~~~~~
(Ligabue Jovanotti Pelu')
Il testo e' stato trascritto da Fabio <fabigreg@tin.it>
Se gli accordi sono cannati in pieno prendetevela con me
(<gasta@iname.com> )...
[NdTigers: ho aggiunto gli accordi sulla prima strofa e
corretto il testo qua e la'. Ho dato il nome corretto (credo)
al *D+*, dovrebbe essere un D9]
Am
Io non lo so chi c'ha ragione e chi no
F
C
se e' una questione di etnia, di economia,
G
oppure solo pazzia: difficile saperlo.
Am
Quello che so e' che non e' fantasia
e che nessuno c'ha ragione e cosi' sia,
C
e pochi mesi ad un giro di boa
G
per voi cosi' moderno
Am
C'era una volta la mia vita
F
c'era una volta la mia casa
C
G
c'era una volta e voglio che sia ancora.
Am
E voglio il nome di chi si impegna
F
a fare i conti con la propria vergogna.
C
G
D9
Dormite pure voi che avete ancora sogni, sogni, sogni

Am
Il
C
Il
Am
Il
C
Il

F
mio nome e' mai piu', mai piu', mai piu'
G
mio nome e' mai piu', mai piu', mai piu'
F
mio nome e' mai piu', mai piu', mai piu'
G
mio nome e' mai piu'...

Am
Eccomi qua, seguivo gli ordini che ricevevo
F
c'e' stato un tempo in cui io credevo
C
che arruolandomi in aviazione
G
avrei girato il mondo
Am
e fatto bene alla mia gente
C
(e) fatto qualcosa di importante.
G
In fondo a me, a me piaceva volare...
Am
C'era una volta un aeroplano
F
un militare americano
C
G
c'era una volta il gioco di un bambino.
Am
E voglio i nomi di chi ha mentito
F
di chi ha parlato di una guerra giusta
C
G
io non le lancio piu' le vostre sante bombe,
D9
bombe, bombe, bombe, BOMBE!
Am
Il
C
Il
Am
Il
C
Il

F
mio nome e' mai
G
mio nome e' mai
F
mio nome e' mai
G
mio nome e' mai

piu', mai piu', mai piu'


piu', mai piu', mai piu'
piu', mai piu', mai piu'
piu'...

Am ["assolo"]
Am
Io dico si dico si puo'
F
sapere convivere e' dura gia', lo so.
G
Ma per questo il compromesso
F
e' la strada del mio crescere.
Am
E dico si al dialogo

F
perche' la pace e' l'unica vittoria
G
l'unico gesto in ogni senso
F
Am
F
che da' un peso al nostro vivere,
G
D9
vivere, vivere.
Am
Io dico si dico si puo'
F
cercare pace e' l'unica vittoria
G
l'unico gesto in ogni senso
F
Am
che dara' forza al nostro vivere.
F G D9
Am
Il
C
Il
Am
Il
C
Il

F
mio nome e' mai
G
mio nome e' mai
F
mio nome e' mai
G
mio nome e' mai

piu', mai piu', mai piu'


piu', mai piu', mai piu'
piu', mai piu', mai piu'
piu'...

+-+-+-+-+-+-+-+-+-+-+-+-+-+-+-+-+-+-+-+-+-+-+-+-+-+-+-+-+-+-+-+-+==================================================================
CD SINGOLO UNA VITA DA MEDIANO
==================================================================
~~~~~~~~~~~~~~~~~
NON FAI PIU' MALE
~~~~~~~~~~~~~~~~~
posted by _-*FRIDO*-_
SiLa
Ho avuto gironi migliori
Sol
ma casco in piedi
La
e tu ne sei fuori
SiLa
e' come un nuovo sapore
Sol
che mi fa ingordo
La
e senza ingrassare
MiSol
resta li' dove sei
La
dove ti tengono
MiSol
resta li' dove sai

La
dove ti dico
Sol
Re
tu non fai piu' male
La
non ci contare
Sinon fai piu' male
Sisappi che
Sol
Re
tu non fai piu' male
La
devi sapere
Siche non fai piu' male
@ -Poi gli accordi sono tutti uguali....vi scrivo solo il testo- @
ho preso le mie misure
sei anni luce da quella che eri
e' un po' che ti ho chiusa fuori
acqua che passa
piova o non piova
resta li' dove sei dove non si sente
resta li' dove sai dove ti dico
tu non fai piu' male
non ci contare
non fai piu' male
sappi che
tu non fai piu' male devi sapere
che non fai piu' male

==================================================================
ALBUM MISS MONDO (1999)
==================================================================
~~~~~~~~~~~~~~~~
SI VIENE E SI VA
~~~~~~~~~~~~~~~~
(Posted by -Little Hawk-)
(Tab di Alessandro Marini)
[Intro]SOL
DO
SOL
DO
e:-----------------|-----------------|
B:-3-3-3-3-3-3-1-1-|-3-3-3-3-3-3-1-1-|
G:-0---------------|-0---------------| x 2
D:-0---------------|-0---------------|
A:-----------------|-----------------|
E:-----------------|-----------------|
1 . 2 . 3 . 4 .
1 . 2 . 3 . 4 .
(TAB alternativa di Maurizio Urbani)

Si viene e si va [creato da ^liga.maurizio@tiscalinet.it^


Con il volume del Drive attivato (DELL'AMPLIFICATORE)
Intro:
//---3--3--3--3--3--3--3--3--3-|-3--3--3--3--3--3--3--3--3-|-3--3--3--3-3--3--3--3--3-|-3--3--3--3--3--3--3--3--3-|--\\---3--3--3--3--3--3--3--3--3-|-3--3--3--3--3--3--3--3--3-|-3--3--3--3-3--3--3--3--3-|-3--3--3--3--3--3--3--3--3-|--//---0--0--0--0--0--0--0--2--2-|-0--0--0--0--0--0--0--2--2-|-0--0--0--0-0--0--0--2--2-|-0--0--0--0--0--0--0--2--2-|--\\-----------------------------|---------------------------|--------------------------|---------------------------|--//-----------------------------|---------------------------|--------------------------|---------------------------|--\\-----------------------------|---------------------------|--------------------------|---------------------------|--Ciao,
Maurizio
SOL
DO
Si viene e si va comunque ballando
Mim
RE
Sol
pensando una vita forse non bastera'
DO
Mim
RE
Do
si viene e si va allora tenendo la vita per la coda
Mim
RE
DO
nel caso che Dio non sia in sede
Si viene e si va tenendoci stretti
tenendoci dritti che cosi' si fa
si viene e si va per sempre
fra gusto e dolore pi o meno venendo nel mondo pi o meno
SOL
DO
Mim
[Rit.] Vai vieni e vai come puoi/{vuoi}
DO
RE
SOL
nasci solo e solo andrai
DO
Mim
RE
SOL
e' in mezzo che hai quel gran bel traffico, il traffico che puoi
SOL
DO
MIm
Si viene e si va cercandosi un senso
DO
RE
[Fill]
che poi alla fine il senso e' tutto qua
[Fill]SOL
DO
SOL
DO
MIm
RE
DO
SOL
e:---------|-----------|---------|---------|-------------|------------|----B:---------|-----------|---------|---------|-0-----3-----|-1----------|----G:-/7------|----/9-\4--|/7-------|--\5-4-0-|-0-----2-----|-0-----5--4-|--/7D:---------|-----------|---------|---------|-2-----0-----|-2----------|----A:---------|-----------|---------|---------|-2-----------|-3----------|----E:---------|-----------|---------|---------|-------------|------------|-----

1 2 3 4

1 2 3

1 2 3 4

1 2 3 4

Si viene e si va di umana commedia


che c'e' chi la spiega e c'e' chi vive e va
si viene e si va comunque
fischiando cantando il motivo ci serve comunque un motivo
[Rit.]

Vai vieni e vai come puoi


nasci solo e solo andrai
e' in mezzo che hai quel gran bel traffico,
DO
[Solo]
il traffico il traffico il traffico il traffico che vuoi

[Solo]
[Suonato 1/8 sotto la tonalita' originale]
[Per eseguire in tonalita' originale, partire dal 12mo capotasto]
SOL
DO
MIm
DO
RE
e:8^10-8----------|-8^10-8-----------|-----------------|-----------------|
B:-------8--------|------------------|-----------------|-8--/10--8---108-|
G:----------------|--------9---------|-7--/9---7---9-7-|-----------------|
D:----------------|------------------|-----------------|-----------------|
A:----------------|------------------|-----------------|-----------------|
E:----------------|------------------|-----------------|-----------------|
1 . 2 . 3 . 4 . 1 . 2 . 3 . 4 .
1 . 2 . 3 . 4 .
1 . 2 . 3 . 4 .
SOL
DO
MIm
RE
DO
e:-----------------|-----------------|----------------|------------|
B:-----------------|-8--/10--8--10-8-|----------------|------------|
G:-7--/9---7---9-7-|-----------------|-------7---7-9--|-9-------/12|
D:-----------------|-----------------|---7-9---9------|------------|
A:-----------------|-----------------|10--------------|------------|
E:-----------------|-----------------|----------------|------------|
1 . 2 . 3 . 4 .
1 . 2 . 3 . 4 .
1 . 2 . 3 . 4
1 2 3 4
MIm
RE
DO
SOL
e:----------------|-------------|-------|
B:----------------|-------------|-------|
G:-------7---7-9--|-9-------/12-|-16----|
D:---7-9---9------|-------------|-------|
A:10--------------|-------------|-------|
E:----------------|-------------|-------|
1 . 2 . 3 . 4
1 2 3 4
Vai vieni e vai come vuoi
nasci solo e solo andrai
e' in mezzo che hai quel gran bel traffico
il traffico il traffico il traffico il traffico che puoi
[Outro]SOL
DO
MIm
DO RE
SOL
DO
e:------------|------------|------------|---------|------------|--------|
B:------------|------------|------------|---------|------------|--------|

G:-4----/9-/7-|\4----/9-\7-|-4----/9-\7-|-5-7-4-5-|-7----/9-\7-|-4----/7|
D:------------|------------|------------|---------|------------|--------|
A:------------|------------|------------|---------|------------|--------|
E:------------|------------|------------|---------|------------|--------|
1 2 3 4
1 2 3 4
1 2 3 4
1 2 3 4
1 2 3 4
1 2 3 4
MIm RE
DO
MIm RE
DO
SOL
e:---------|---------|---------|---------|-----|
B:---------|---------|---------|---------|15---|
G:-16------|------/7-|-16------|---------|-----|
D:---------|---------|---------|---------|-----|
A:---------|---------|---------|---------|-----|
E:---------|---------|---------|---------|-----|
1 2 3 4
1 2 3 4
1 2 3 4
1 2 3 4

[Rip.Intro]

TAB ALTERNATIVA []
Intro e chiusura
E---3--3--3--3--3--3--3--3--3------------------------------------------B---3--3--3--3--3--3--3--1--1------------------------------------------G---0--0--0--0--0--0--0--0--0------------------------------------------D----------------------------------------------------------------------A----------------------------------------------------------------------E----------------------------------------------------------------------Riff dopo il primo ritornello
E----------------------------------7/10--------------------------------B----------------------------------------------------------------------G----/7---/9---\4---/7--5\4--0--5--------------------------------------D----------------------------------------------------------------------A----------------------------------------------------------------------E----------------------------------------------------------------------Solo
E------------------20--20^---------20--20^-----------^-----------------B---------------------------20~~~-----------17~~~--15---15--17p15------G----------------------------------------------------------------------D----------------------------------------------------------------------A----------------------------------------------------------------------E-----------------------------------------------------------------------

E---15--17--15^--15----^-------------15--17--15^--15-------------------B--------------------15---15--17p15--------------------------12h15-----G-----------------------------------------------------12h14------------D----------------------------------------------------------------------A----------------------------------------------------------------------E-----------------------------------------------------------------------

E----------12~~~--15~~~-----------------------12~~~--15~~~-------------B---12h15-----------------------12h15--12h15---------------------------G------------------------12h14-----------------------------------------D----------------------------------------------------------------------A----------------------------------------------------------------------E----------------------------------------------------------------------Riff finale
E----------------------------------------------------------------------B----------------------------------------------------------------------G-------/4---/9--7--4---/9--7--4---/9--7--5--7--4/5---/7---/9--4-------D----------------------------------------------------------------------A----------------------------------------------------------------------E-----------------------------------------------------------------------

E----------------------10~~~-------------------------------------------B--------12~~~--12~~~--------------------------------------------------G---~~~----------------------------------------------------------------D----------------------------------------------------------------------A----------------------------------------------------------------------E----------------------------------------------------------------------=========================================================================
===
~~~~~~~~~~~~~
UNO DEI TANTI
~~~~~~~~~~~~~
(posted by -Little Hawk-)

La9
E' stato un piacere
Do#Re
parlare comunque per me
Sie di li' qualcuno c'era?
La9
di li' qualcuno c'e' ?
E' sempre un piacere
Do#Re
con l'onda che passa di qui
Sie qui sentire l'onda sentire che
Re
Do#Mi
son quello che ti tiene su lo specchio
Re
Do#ma quello che ci vedi e' sempre
Mi
e solo quello che decidi
La
Do#Re
qui uno dei tanti e'... li' ? Li' ci sentite bene ?

SiLi' vi sentite bene ? Li' lo sentite che


La
Do#qui uno dei tanti... e li' ?
Re
Non ho granche' da dire
Sima quello mi viene bene
Re
mi viene quello li'
Do#Mi
sempre che serva a qualcosa
Re
Do#Mi
sempre che... non lo so... serve a qualcosa uno
La
in mezzo a tanti e li' ?
Do#E' un nastro che gira
Re
su un mondo che gira di piu'
Sivorresti star giu' un giro
La
o vuoi girare di piu' ?
Do#E' sempre un piacere
Re
ma qui si fa quel che si puo'
Sise quello puo' bastare
se invece no...
Re (etc..)
son quello che ti tiene su lo specchio ma
quello che ci vedi e' sempre
e solo quello che decidi
La (etc..)
Qui uno dei tanti e. li' ? li' ci sentite bene ?
Re Do#- Mi Re Do#- La Do#- Re
SiLi' vi sentite bene ? Li' vi sentite cosi'...
La...
Qui uno dei tanti e .li' ? Non ho granche' da dire
ma quello mi viene bene mi viene quello li'
sempre che serva a qualcosa
sempre che. certo che serve a qualcosa uno
La
Do#- Re Si- La
in mezzo a tanti e li'.
===================================================================
~~~~~~~~~~~~
ALMENO CREDO
~~~~~~~~~~~~
CRD: Fabrizio Cardinale
rivisitati da Alessandro Marini
TAB: Tigers & Alessandro Marini
e:--------7---------

B:-4h5--7---7--5-4-G:-----------------D:-----------------A:-----------------E:-----------------[Versione alternativa per 2 chitarre]


[Intro Guit 1]
e:---------|-7-----|---------|-7-----|----------|-7-----|---------|-7----|
B:---4^5-7-|---7---|---4^5-7-|---7---|----4^5-7-|---7---|---4^5-7-|---7--|
G:---------|-----4-|---------|-----4-|----------|-----4-|---------|----4-|
D:---------|-------|---------|-------|----------|-------|---------|------|
A:---------|-------|---------|-------|----------|-------|---------|------|
E:---------|-------|---------|-------|----------|-------|---------|------|
1 2 . 3
1 2 3
1 2 . 3
1 2 3
1 2 . 3
1 2 3
1 2 . 3
1 2 3
e:---------|-------|---------|-------||---------|-7-----|---------|-7----|
B:---------|-------|---------|-------||---4---7-|---7---|---7---4-|---7--|
G:---------|-------|---------|-------||-4-------|-----4-|-4-------|----4-|
D:---------|-------|---------|-------||---------|-------|---------|------|
A:---------|-------|---------|-------||---------|-------|---------|------|
E:---------|-------|---------|-------||---------|-------|---------|------|
[Guit 2/Outro]
SI
SI/LA#
Credo che ci voglia un Dio ed anche un bar
SOL#m7
FA#
Credo che stanotte ti verr a trovare
MI
SI
LA
Per dirci tutto quello che dobbiamo dire o almeno credo

MI

SI
SI/LA#
Credo proprio che non sia gia' tutto qui
SOL#m7
FA#
E certi giorni invece credo sia cos
MI
SI
LA
Credo al tuo odore e al modo in cui mi fai sentire a questo credo
[Rit]

SOL#m7
FA#
Qua nessuno c'ha il libretto d'istruzioni
MI
credo che ognuno si faccia il giro
SI
/LA#
Come viene a suo modo
SOL#m7
FA#
Qua non c'e' mai stato solo un mondo solo
MI
credo a quel tale che dice in giro
SI
/LA#

MI

Che l'amore porta amore


SI
SI/LA# SOL#m7 FA#
credo
LA
MI
SI
Se ti serve chiamami scemo ma io almeno credo
LA
MI
Se ti basta chiamami scemo che io almeno

SI/LA#

SOL#m7

FA#

Credo nel rumore di chi sa tacere


Che quando smetti di sperare inizi un po' a morire
Credo al tuo amore e a quello che mi tira fuori o almeno credo
Credo che ci sia qualcosa chiuso a chiave
E che ogni verita' pu fare bene e fare male
Credo che adesso mi devi far sentir le mani che a quelle credo
[Rit]

Qua nessuno c'ha il libretto d'istruzioni


credo che ognuno si faccia il giro
Come viene a suo modo
Qua non c'e' mai stato solo un mondo solo
credo a quel tale che dice in giro
Che l'amore chiama amore

[Solo]
e:-------|---------|-------|----------|---------|---------|-------|--------|
B:-------|---------|-------|----------|---------|---------|-------|--------|
G:-------|-8-\4----|-------|-8-\4-----|---------|-8-\4----|-------|-8\11---|
D:-------|---------|-------|----------|---------|---------|-------|--------|
A:-------|---------|-------|----------|---------|---------|-------|--------|
E:-------|---------|-------|----------|---------|---------|-------|--------|
1 2 3
1 2 3
1 2 3
1 2 3
1 2 3
1 2 3
1 2 3
1 2
3
e:-------|---------|-------|----------|---------|---------|-------|--------|
B:-------|---------|-------|----------|---------|---------|-------|--------|
G:-------|-8-------|-------|----------|---------|-8-------|-------|--------|
D:-------|-9--9----|-------|----------|-9-------|-9--9----|-------|--------|
A:-------|-9-------|-------|----------|-9-------|---------|-------|--------|
E:-6-----|---------|-------|----------|-6-------|---------|-------|--------|
| Questa parte 2 volte
|
e:|-------------|------------------|-------------|------------||
B:|-------------|------------------|-------------|------------||
G:|-------------|-8----\4(2nda-\11)|-------------|-8--\4------||
D:|-------------|------------------|-------------|------------||
A:|-------------|------------------|-------------|------------||
E:|-------------|------------------|-------------|------------||
1 . 2 . 3 .
1 . 2 . 3 .
1 . 2 . 3 .
1
2
3

e:|-------------|------------------|-------------|------------||
B:|-------------|------------------|-------------|----/9---12-||
G:|-8-9-8-9-8---|-8--9-/11-8-------|-8-9-8-9-8---|-11---------||
D:|-----------9-|-------------9----|-----------9-|------------||
A:|-------------|------------------|-------------|------------||
E:|-------------|------------------|-------------|------------||
[Rit]

Qua nessuno c'ha il libretto d'istruzioni


credo che ognuno si faccia il giro
Come viene a suo modo
Qua non c'e' mai stato solo un mondo solo
credo a quel tale che dice in giro
Che l'amore porta amore
credo
Se ti serve chiamami scemo ma io almeno credo
Se ti basta chiamami scemo che io almeno

[Outro]
1 2 . 3
1 2 3
1 2 . 3
1 2 3
e:---------|-7-----|---------|-7-----|
B:---4---7-|---7---|---7---4-|---7---|
G:-4-------|-----4-|-4-------|-----4-| x 2
D:---------|-------|---------|-------|
A:---------|-------|---------|-------|
E:---------|-------|---------|-------|
[VERSIONE ALTERNATIVA CON CAPOTASTO]
Da: Cristian Gabbanini <cgabbanini@cervia.com>
*29/01/2000, nella replica di "Taratata'" trasmessa oggi pomeriggio ho
visto
che Liga suonava degli accordi simili a quelli che riporto, sulla sua
chitarra elettrica. Purtroppo non si sentiva per niente quello che
suonava,
e credo che non avesse il capotasto, ergo quello che suonava non era
proprio
della bella roba (l'ho visto fare una cosa del genere anche a "Quelli che
il
calcio" quando cant "Una vita da mediano" in playback: suonava gli
accordi
come se avesse un capo, senza per averlo montato sulla chitarra, tanto
chi
se ne sarebbe accorto? Poi l'ho rivisto dal vivo e il capotasto lo
usava...)
Comunque mi sembra una posizione molto facile per suonare questa bella
canzone, che cos e' molto pi omogenea come impatto sonoro, soprattutto
se
suonata con una chitarra folk, il che non fa mai male.
E cos si risolve anche il "problema" dell'accordo si/la#, che diventa un
semplice sol/fa#.
capo sul 4 tasto (accordi riferiti a questa posizione)
do/sol
doadd9
re
mi-7

332010
x32033
xx0232
022033

fa
sol
sol/fa#
si-

133211
320033
200033
x24432

sol
sol/fa#
credo che ci voglia un dio ed anche un bar
mi-7
re
credo che stanotte ti verr a trovare
o/sol
sol
per dirci tutto quello che dobbiamo dire
fa
do/sol
o almeno credo
sol
sol/fa#
credo proprio che non sia gia' tutto qui
mi-7
re
e certi giorni invece credo sia cos
do/sol
sol
credo al tuo odore e al modo in cui mi fai sentire
fa
do/sol
a questo credo
mi-7
sol/fa#
qua nessuno c'ha il libretto d'istruzioni
doadd9
sol
credo che ognuno si faccia un giro
sol/fa#
mi-7
re
come viene,
a suo modo qua non c'e' mai stato solo un mondo solo
doadd9
sol
sol/fa#
credo a quel tale che dice in giro che l'amore
sol sol/fa# mi-7 re fa
porta amore credo
do/sol
se ti serve, chiamami scemo
sol sol/fa# mi-7 re fa
ma io almeno credo
do/sol
se ti basta chiamami scemo che io almeno ...
sol
sol/fa#
credo nel rumore di chi sa tacere
mi-7
re
che quando smetti di sperare inizi un po' a morire
do/sol
sol
credo al tuo amore e a quello che mi tira fuori
fa
do/sol
o almeno credo
sol
sol/fa#
credo che ci sia qualcosa chiuso a chiave
mi-7
re
e che ogni verita' pu fare bene o fare male
do/sol
sol
credo che adesso mi devi far sentir le mani

fa
do/sol
che a quelle credo
mi-7
re
qua nessuno c'ha il libretto d'istruzioni
doadd9
sol
credo che ognuno si faccia un giro
sol/fa#
mi-7
re
come riesce,
a suo modo qua non c'e' mai stato solo un mondo solo
doadd9
sol
sol/fa#
sicredo a quel tale che dice in giro che l'amore
chiama amore
mi-7
re
qua nessuno c'ha il libretto d'istruzioni
doadd9
sol
credo che ognuno si faccia un giro
sol/fa#
mi-7
re
come viene,
a suo modo qua non c'e' mai stato solo un mondo solo
doadd9
sol
sol/fa#
credo a quel tale che dice in giro che l'amore
sol sol/fa# mi-7 re fa
porta amore credo
do/sol
sol sol/fa# mi-7 re fa
se ti serve, chiamami scemo ma io almeno credo
do/sol
se ti basta chiamami scemo che io almeno ...
========================================================================
~
E
~
(posted by -Little Hakw-)
[Intro]
G:------|-----------------|--------------|-----------------|-------------|
D:------|-----------------|------------3-|-0-0-------------|-------------|
A:-0----|--------(0)0-1-0-|-1-1------1---|--------(0)0-1-0-|-1-1------0--|
E:----3-|-1-1-------------|--------------|-----------------|-----------3-|
3 4
1 . 2 3 . 4 .
1 . 2 3 . 4
1 . 2 3 . 4 .
1 . 2 3 . 4
(FA)
E il cielo non smette
(SIb)
e sono in gran tiro
(REm)
(SIb)
le tipe che entrano al Vox
(FA)
oppure al Corallo
(SIb)
e pi in la' c'e' Kingo
(REm)
(SIb)

che e' gia' nudo in nome del rock


DO
REm
e in una balera son gia' all'hully gully
SIb
FA
|SOLm
l'orchestra da ballo c'ha un'altra serata a Pavia
[Rit]

|FA
E ci sono anch'io

|SIb

|REm

|SIb

LAm|SIb

E c'e' un'altra rissa


un rito, una messa
che puzza un bel po' di routine
o e' solo un bisogno
una specie di impegno
che prendi con non si sa chi
e una ha lasciato il suo peggio in bottega
si mette un ombretto che inquieta ma e' rosso allegria
[Rit]

E ci sono anch'io

FA
SIb
qui la notte picchia bene
FA
SIb
su chi molla e su chi tiene
FA
SIb
qui la notte picchia forte
FA
SIb
[Solo]
gatti svelti vite storte
[TAB di Alessandro Marini]
[Solo]FA
SIb
REm
e:-----------------|-----------------|---------------------|
B:-----------------|-----1---3-1-----|-------10\8\6--8-6---|
G:-----------------|---3---3-----3---|---------------------|
D:---------7-3-----|-----------------|---------------------|
A:--/3-5-8---------|-----------------|---------------------|
E:-----------------|-----------------|---------------------|
1 . 2 . 3 . 4 .
1 . 2 . 3 . 4 .
1 . 2 .
3 . 4 .
e:-5---------5-5-5-|-6---------6-6-6-|-5-------------5-5-5-|
B:-6---------6-6-6-|-----------6-6-6-|---------------6-6-6-|
G:-5---------------|-----------------|---------------------|
D:-----------------|-----------------|---------------------|
A:-----------------|-----------------|---------------------|
E:-----------------|-----------------|---------------------|
SIb
FA
e:--------------------|----------|
B:--------------------|-8--------|
G:-------7-/10-7-10-7-|----10----|
D:--------------------|----------|
A:--------------------|----------|
E:--------------------|----------|
1 . 2 . 3 . 4 .
1 .
e:-6--------6-----8---|----------|
B:----------6-----6---|----------|
G:--------------------|----------|
D:--------------------|----------|
A:--------------------|----------|

E:--------------------|----------|
e tutto e' perfetto
e il mondo e' in affitto
e il cielo non smettera' mai
e in faccia hai il riflesso
di un teleservizio
su missili, bombe e cowboy
e in faccia c'hai tutti i pregi e i difetti
che sono in parte condanna e un po' compagnia
[Rit]

E ci sono anch'io

qui la notte
su chi molla
qui la notte
gatti svelti
[Outro]

|FA

picchia bene
e su chi tiene
picchia forte
vite storte

|SIb

|REm

|SIb

|FA

=============================================================
~~~~~~~~~~~~~~~~~~~~~~~
BABY, E' UN MONDO SUPER
~~~~~~~~~~~~~~~~~~~~~~~
(posted by -Little Hakw-)
INTRO:

Trillo di telefono (Lab ->

16 tasto del Mi cantino)

--------------------------------------------------------------------------------------------4-4---2-4---2-4-2----------2-------------------4-----[Intro/Bass Outro]
[Versione alternativa di Alessandro Marini]
+-3-+
G:-------------------|
D:-----4---4---------| X 4
A:-------------4-2---|
E:-2-----2---2-----5-|
1 . 2 . 3 . 4
(FA#)
Baby il mondo ha sempre ragione
supermostri e superbuoni
super-ate i nuovi confini
Billy siamo qua ed aspettiamo
dacci il nostro chip quotidiano
siamo sempre ci che mangiamo
SI
portati dietro te nel nuovo ordine
se no si sballa il target
FA#
superstragi senza risposta

nuove nuove dal superteste


[stop]
anni '80 a grande richiesta
sicuro che ti fai il pieno di super ?
[Rit]

FA#
Cos'e' che non va ?
SI
Cosa non va ?
MI
LA
FA#
Baby, e' un mondo super !
Cos'e' che non va ?
SI
Cosa non va ?
MI
LA
FA#
[Fill]
Baby, e' un mondo super !

[Fill/Guit Outro]
FA#
e:-----------------|-----------------|-----------------|----------------||
B:-----7-----5-----|-----7-----5-----|-----7-----5-----|-----7-----5----||
G:-----------------|-----------------|-----------------|----------------||
D:-4/5---4/5-------|-4/5---4/5-------|-4/5---4/5-------|-4/5---4/5------||
A:-----------------|-----------------|-----------------|----------------||
E:-----------------|-----------------|-----------------|----------------||
1 . 2 . 3 . 4 .
1 . 2 . 3 . 4 .
1 . 2 . 3 . 4 .
1 . 2 . 3 . 4 .
La cultura ti alza la voce
tre miliardi di analfabeti
per una "cultura di pace"
Cercati il tuo karma nel sito
fatti un clone maleducato
non lasciare a casa l'invito
sotto la chimica la capra lievita
e si modifica bene
Baby il mondo ha sempre ragione
puoi gonfiarlo di silicone
ma alla fine ha sempre ragione
sicuro che mi fai il pieno di super ?
[Rit]

Cos'e' che non va ?


Cosa non va ?
Baby, e' un mondo super !
Cos'e' che non va ?
Cosa non va ?
Baby, un mondo super !

+----| 1,2
[Solo]MIbm

MI

+----| 3
|MIbm

e:-----------------|-----------------|-----------------|----/7-7--------|
B:----/7-7---------|----/9-9---------|----/7-7---------|----/9-9--------|
G:-----------------|-----------------|-----------------|----------------|
D:-----------------|-----------------|-----------------|----------------|
A:-----------------|-----------------|-----------------|----------------|
E:-6-------------6-|-7---------------|-6---------------|-7--------------|
1 . 2 . 3 . 4 .
1 . 2 . 3 . 4 .
1 . 2 . 3 . 4 .
1 . 2 . 3 . 4 .
FA#
e:----------------------------------|----------------------------------||
B:-------------------12----11-------|-------------------12----11-------||
G:-11-------11----------------14-11-|-11-------11----------------14-11-||
D:----11-13----11-13----------------|----13-11----13-11----------------||
A:----------------------------------|----------------------------------||
E:----------------------------------|----------------------------------||
1
.
2
. 3 . 4 .
1
.
2
. 3 . 4 .
e' vero che ti fai il pieno di super ?
[Rit]

Cos'e' che non va


Cosa non va ?
Baby, e' un mondo
Cos'e' che non va
Cosa non va ?
Baby, e' un mondo

?
super !
?
super !

Cos'e' che non va ?


Cosa non va ?
Baby, e' un mondo super !
Cos'e' che non va ?
Cosa non va ?
Baby, il mondo super !
Baby, il mondo super !
Baby, il mondo super !
[Outro][Bass+Guitar]
=================================================================
~~~~~~~~~~~~~~~~~~~
UNA VITA DA MEDIANO
~~~~~~~~~~~~~~~~~~~
Posizioni consigliate per una versione piu' facile o se non si ha un
capotasto sottomano:
[NdTigers]
G:
D:
Am:
C:

xx0787
x57775
577555
x35553

accordi da: Cristian Gabbanini <cgabbanini@cervia.com>


capo sul 5 tasto
[una mia nota personale: per fare questi accordi conviene usare una
posizione un po' strana per il re usando anulare sulla prima corda,
poi mignolo e medio sulle altre due. Cosi' facendo i passaggi fra i vari
accordi risultano molto piu' facili]
re

xx0232

la4/6
mi-7/9
sol

x02232
022032
320033

Il giro iniziale e' basato sull'alternanza tra re e re2, e giocato sui


bassi
degli accordi.
-2--2-0-2-0-2---3--3-----------2--2-------------------------------------------------------Nel ritornello, per avere un effetto simile a quello del Liga, bisogna
suonare la prima corda alternatamente a vuoto e con l'anulare sul secondo
tasto (che secondo questi accordi non dovrebbe muoversi di l, come il
mediano. Ehm, battutaccia....).
[Versione alternativa di Alessandro Marini]
[Grazie a Tigers ed a Cristian Gabbanini]
[capo sul 5 tasto]
[Intro/Outro]RE5/9
LA4/6
MIm7/9
e:-2---2--0-2-0-2---|-----2--0-2-0-0---------|-----2--0-2-0-2-------|
B:-3---3--3-3-3-3---|-3---3--3-3-3-3---------|-----3--3-3-3-3-------|
G:-2---2--2-2-2-2---|-2---2--2-2-2-2---------|-0---0--0-0-0-0-------|
D:-0---0------------|-2---2----------------2-|-2---2----------------|
A:------------------|------------------0^2---|-2--------------------|
E:------------------|------------------------|-0----------------0-2-|
SOL
e:------------------|
B:-----3--3-3-3-3---|
G:-----0--0-0-0-0---|
D:-0---0--0-0-0-----|
A:-2---2------2-----|
E:-3----------------|
re
una vita da mediano
la4/6
a recuperar palloni
mi-7/9
nato senza i piedi buoni
sol
lavorare sui polmoni
re
una vita da mediano
la4/6
con dei compiti precisi
mi-7/9
a coprire certe zone
sol
a giocare generosi
re

[Rit] l
la4/6
sempre l
mi-7/9
l nel mezzo
sol
finche' ce n'hai stai l
una vita da mediano
da chi segna sempre poco
che il pallone devi darlo
a chi finalizza il gioco
una
che
ne'
ne'
[Rit]

vita da mediano
natura non ti ha dato
lo spunto della punta
del 10 che peccato
l
sempre l
l nel mezzo
finche' ce n'hai stai l
stai l
sempre l
l nel mezzo
finche' ce n'hai
finche ce n'hai
stai l

[Solo]SIm
RE
SIm
RE
e:---------|---------|-2-----2-|-----2---|---------|---------|-2-------|
B:-3-----3-|-----3---|---3-----|-3-------|-3-----3-|-----3---|-3-------|
G:---4-----|-4-------|-----2---|---2-----|---4-----|-4-------|-2-------|
D:-----4---|---4-----|---------|---------|-----4---|---4-----|---------|
A:---------|---------|---------|---------|---------|---------|---------|
E:---------|---------|---------|---------|---------|---------|---------|
1 2 3 4
1 2 3 4
1 2 3 4
1 2 3 4
1 2 3 4
1 2 3 4
1 2 3 4
e:---------|-----2---|-5-2-----|---------|---------|-----2---|-5-2-----|
B:-------3-|---3---3-|-3---3---|-2-3-2-3-|-------3-|-3-----4-|-3---3---|
G:-----4---|-4-------|-2-----2-|---------|-----4---|-4-------|-2-----2-|
D:-----4---|---------|---------|---------|-----4---|---------|---------|
A:---------|---------|---------|---------|---------|---------|---------|
E:---------|---------|---------|---------|---------|---------|---------|
SIm
MIm
MIm
e:---------|---------|---------|---------|---------|---------|---------|
B:---------|-3-----3-|-----3---|---------|---------|---------|---------|
G:---------|---4-----|-4-------|-----0---|---------|-------0-|---------|
D:---------|-----4---|---4-----|---2-----|---------|-----2---|---------|
A:-0-2-5---|---------|---------|-2-------|---------|---2-----|---------|
E:---------|---------|---------|---------|---------|-0-------|---------|
1 2 3 4
1 2 3 4
1 2 3 4
1 2 3 4
1 2 3 4
1 2 3 4
1 2 3 4
e:---------|---------|-----2---|-5-2-----|---------|---------|---------|
B:-2-3-2-3-|-------3-|---3---3-|-3---3---|-2-3-2-3-|-3/5-3---|---------|
G:---------|-----4---|-4-------|-2-----2-|---------|---------|---/5--2-|
D:---------|-----4---|---------|---------|---------|---------|---------|
A:---------|---------|---------|---------|---------|---------|---------|
E:---------|---------|---------|---------|---------|---------|---------|

SOL
e:---------|---------|
B:-3-------|---------|
G:-0-------|---------|
D:-0-------|---------|
A:-2-------|---------|
E:-3-------|---------|
1 2 3 4
1 2 3 4
e:---------|---------|
B:---------|---------|
G:---------|---------|
D:---5---4-|---------|
A:---------|---0-----|
E:---------|---------|
una vita da mediano
da uno che si brucia presto
perch quando hai dato troppo
devi andare e fare posto
una vita da mediano
lavorando come Oriali
anni di fatica e botte e
vinci casomai i mondiali
[Rit]

l
sempre l
l nel mezzo
finche' ce n'hai stai l
stai l
sempre l
l nel mezzo
finche' ce n'hai, finche' ce n'hai
stai l

[Strum] |re

|la4/6

|mi-7/9

|sol

|re

|la4/6

|mi-7/9

|sol

[Outro]
====================================================================
~~~~~~~~~~~~~~~~
DA ADESSO IN POI
~~~~~~~~~~~~~~~~
[Posizioni accordi (NdTigers)]
G2:
D4/F#:
Em7:
D4:
C9:

320233
200233 (qui volendo potete anche usare il pollice)
022033
xx0233
x32033

(posted by -Little Hawk-)


Sol2
Re4/Fa#
Mi-7
Da adesso in poi com'e' che andra'
Re4
Do9
con te che hai detto "sono qua"

e davvero
Sol2
Re4
sei qua fra noi
Re
fra noi
Sol2
me e lei
tu che hai davanti quel che hai
e comunque sia da adesso in poi
auguri
da me saprai
saprai
Do
Sol
che vale la pena vivere
Re
Mimi chiederai "s, ma perch ?"
Do
Sol
Re
so solo che ti dir "vale la pena, vedrai"
Sol Re/Fa# Mi- Re
Da adesso in poi
(2 v.)
Da adesso in poi ti aspetto qua
che fretta che hai avuto gia'
aspetta
per te e per noi
per te
per noi
non so se sar pronto mai
prova a esser pronto tu per noi
ascolto:
mi insegnerai
che puoi
che vale la pena vivere
ti chieder "dimmi perch"
tu che non parli dirai
"vale la pena vedrai"
Da adesso in poi (2 v.)
Da adesso in poi ci prover
a farti avere il meglio che ho
il peggio
lo troverai
da te
ma vale la pena vivere
mi chiederai "s, ma perch ?"
so solo che ti dir
vale la pena vedrai
da adesso in poi (2 v.)
~~~~~~~~~~~~~~~~~
L'ODORE DEL SESSO
~~~~~~~~~~~~~~~~~
(posted by -Little Hakw-)

Da: Temerario <Asso70@hotmail.com>


X3
---------7-------7------------------8------10---10--8----------9-----9----------------------------------------------------------------------------------------------------------------Si fa presto a cantare...................cose
X2
----------7-------7-----------------------8------10---10---8-------------9-------9--------------------------------------------------------------------------------------------------------------------------------------x2
--------------7--------7----------------------8-------10---10--8-------------7-------7---------------------------------------------------------------------------------------------------------------------------Si fa un po' meno presto ...................cos
X2
----------7-------7-----------------------8------10---10---8-------------9-------9--------------------------------------------------------------------------------------------------------------------------------------x2
--------------7--------7----------------------8-------10---10--8-------------7-------7---------------------------------------------------------------------------------------------------------------------------......il seguito......boh....!!!
[Versione alternativa da Marco]
Intro
Fede (posizioni usate nel concerto)
E
B
G
D
A
E

//------------------------|
||------12-------12-------|
||---12----12h14----14-12-| x 5
||14----------------------|
||------------------------|
\\------------------------|

poi
E //------------------------|

B
G
D
A
E

||------12-------12-------|
||---12----12h14----14-12-|
||12----------------------|
||------------------------|
\\------------------------|

Ad un certo punto entra anche Mel (dopo il basso):


E
B
G
D
A
E

//------------|--------------|--------------|
||------------|--------------|--------------|
||4-5--7--9---|--------------|4-5-7-9-7-9\4-| poi gli accordi
||------------|--------------|--------------|
||------------|--------------|--------------|
\\------------|--------------|--------------|

MiDo
Sol
Si fa presto a cantare che il tempo sistema le cose
MiDo
Sol
si fa un po' meno presto a convincersi che sia cos
MiDo
io non so se e' proprio amore:
Sol
La
faccio ancora confusione
Do
Re
Mi- Re
so che sei la pi brava a non andartene via
La
Do
forse ti ricordi
Re
Sol
ero roba tua
MiDo
La
non va pi via l'odore del sesso che hai addosso
Sol
MiDo
La
si attacca qui all'amore che posso che io posso
e ci siamo mischiati la pelle le anime le ossa
ed appena finito ognuno ha ripreso le sue
tu che dentro sei perfetta
mentre io mi vado stretto
tu che sei cos brava a rimanere mania
forse ti ricordi
sono roba tua
non va pi via l'odore del sesso che hai addosso
si attacca qui all'amore che posso che io posso
non va pi via l'odore del sesso che hai
addosso si attacca qui all'amore che posso che io posso
non va pi via davvero non va pi via nemmeno se...
non va pi via
~~~~~~~~~~~~~~~~~~~~~~~~~~
KAY E' STATA QUI - LIGABUE
~~~~~~~~~~~~~~~~~~~~~~~~~~

tabbed by nuke.
[Intro di Alessandro Marini]
[Intro/Rit]
Mim7[suonato al 7mo capo] RE4[al 5nto capo]
e:--------10-----------10----|-------10---------10-----|
B:--8-7-8--------8-----------|-8-7-8-------8-----------|
G:--7------------------------|-7-----------------------|
D:---------------------------|-------------------------|
A:---------------------------|-------------------------|
E:---------------------------|-------------------------|
1 . 2 . 3 . 4 . 5 . 6 .
1 . 2 . 3 . 4 . 5 . 6 .
DO[al 3rzo capo]
SOL
SOL/FA#
e:-------10---------10-----|-------------------------|
B:-8-7-8-------8---------8-|-----8-----8-----8-------|
G:-------------------------|-------------------------|
D:-------------------------|-7-9---------7-9---------|
A:-------------------------|-------------------------|
E:-------------------------|-------------------------|
1 . 2 . 3 . 4 . 5 . 6 .
1 . 2 . 3 . 4 . 5 . 6 .
[Versione semplificata, opera di Alberto Martano]
e:-----------------------B:-------------3-------3-G:---------0------0------D:-----4-----------------A:--5--------------------E:-----------------------MI-7
Giochi ancora forte
RE
giochi solo sola
DO
SOL FA#-/SOL
o giochi ancora un po' con me?
MI-7
E' come a moscacieca
RE
vinci e non ti trovo
DO
SOL FA#-/SOL
forse cerco quella che non c'e'...
MI-7 FA#-/SOL DO
MI-7 FA#-/SOL DO
MI-7
Ridi di chi bacia
RE
il culo alla sua morte
DO
non ho visto niente io
MI-7
dici di aver visto
RE
sempre troppo forte
DO

SOL FA#-/SOL
e tu

SOL

FA#-/SOL

sempre accesa la tua spia


[bridge_on]
LASI/SOL DO
SI/SOL DO
e lavori ancora d'ago a modo
tuo...
[bridge_off]
[chorus_on]
MI-7
RE
Niente e' piu' uguale

RE

DO
SOL

kay e' stata qui


FA#-/SOL
kay e' stata qui
MI-7
RE
niente e' piu' uguale
DO SOL FA#-/SOL
sara' mai...
[chorus_off]
MI-7 RE DO SOL FA#-/SOL
MI-7
Giochi in mezzo ai giochi
RE
di tutti gli idioti
DO
SOL FA#-/SOL
che han risposte facili
MI-7
giochi e vuoi che rida
RE
il test e' negativo
DO
SOL FA#-/SOL
giochi a farmi dire si
[bridge_on]
LA- SI/SOL DO
SI/SOL DO
e lavori sempre d'ago a modo
tuo...
[bridge_off]
[chorus_on]
MI-7
RE
Niente e' piu' uguale

RE

DO
SOL

kay e' stata qui


FA#-/SOL
kay e' stata qui
MI-7
RE
niente e' piu' uguale
DO SOL FA#-/SOL
sara' mai...
[chorus_off]
MI-7 FA#-/SOL DO [X4]
[Assolo di tromba, su 2 giri di strofa + bridge]
[chorus_on]
MI-7
RE
Niente e' piu' uguale

DO
SOL

kay e' stata qui

FA#-/SOL
kay e' stata qui
MI-7
RE
niente e' piu' uguale
DO SOL FA#-/SOL
sara' mai...
MI-7
RE
Niente e' piu' uguale

DO
SOL

kay e' stata qui


FA#-/SOL
kay e' stata qui
MI-7
RE
niente e' piu' uguale
DO SOL FA#-/SOL
sara' mai...
[chorus_off]
MI-7 FA#-/SOL DO [X3]
MI-7
[Strofa]
mi-7
re
do
sol fa#-/sol
e|--3--|--3--|--3--|--3--|--3-----|
b|--3--|--3--|--3--|--3--|--3-----|
g|--0--|--2--|--0--|--0--|--0-----|
d|--0--|--0--|--2--|--0--|--2-----|
a|--2--|--X--|--3--|--2--|--0-----|
e|--2--|--X--|--0--|--3--|--2-----|
[bridge]
la- si/sol do
re
e|--0--|--0--|--0--|--2--|
b|--1--|--3--|--3--|--3--|
g|--2--|--0--|--0--|--2--|
d|--2--|--0--|--2--|--0--|
a|--0--|--2--|--3--|--0--|
e|--X--|--0--|--0--|--X--|
Ciao nuke.
http://members.xoom.it/nuke
mailto:unklenuke@geocities.com
~~~~~~~~~~~~~~~~~~~~~~~~~~~~~~~~~~~~~~~~~~~~~~~~~~~~~~~~~~~~~~~~~
QUALCUNO HA VISTO, PER CASO, IL MIO CANE BLU ELETTRICO MONOFASE?
~~~~~~~~~~~~~~~~~~~~~~~~~~~~~~~~~~~~~~~~~~~~~~~~~~~~~~~~~~~~~~~~~
"Miss Mondo" - 1999 - Luciano Ligabue
( Posted by -Little Hawk- )
(2 v.)
e---||----------------------------------------------||----B---||----------------------------------------------||----D---||.--------------------------------------------.||----G---||.--------------------------------------------.||----A---||---12--14--12--11--12--11--9--9--9--7--7--7---||----E---||----0---0---0---0---0---0--0--0--0--0--0--0---||----e-----------------------------------------------------------||-

B-----------------------------------------------------------||D-----------------------------------------------------------||G-----------------------------------------------------------||A---5--7--5--4----5-4--2--0--2--2--2-2----2-0-2-0-2-0-2-0-2-||E---0--0--0--0--0-0-0--0--0--0--0--0-0--0-0-0-0-0-0-0-0-0-0-||==================================================
SULLA MIA STRADA
================
TAB di Alessanro Marini
[Intro/Riff1]MI
MI7+/SOL#
LA
e:---------------------|----------------------|---------------------|
B:10-10-9-9-10-10-12---|10-10-9-9-10-10-12-12-|10-10-9-9-10-10-12---|
G:---------------------|----------------------|---------------------|
D:---------------------|----------------------|---------------------|
A:---------------------|----------------------|---------------------|
E:---------------------|----------------------|---------------------|
1 . 2 . 3 . 4 .
1 . 2 . 3 . 4 .
1 . 2 . 3 . 4 .
LAm
[Intro/Riff2/Rit] MI7+/SOL#
e:--------------------|-----------------|-------------------|
B:10-10-9-9-10-10-----|-10----9-9-------|-------9----9----9-|
G:----------------9---|---------------9-\-9-------11---11---|
D:--------------------|-----------------|-------------------|
A:--------------------|-----------------|-------------------|
E:--------------------|-----------------|-------------------|
1 . 2 . 3 . 4 .
1 . 2 . 3 . 4 .
1 . 2 . 3 . 4 .
LA
LAm
MI
MI7+/SOL#
e:-----------------|-------------------|-----------------|----------------|
B:10-----9-9-------|-------9----9----9-|12-------------12|12------------9-|
G:---------------9-\-9-------11---11---|-------9-9-------|-------9-9------|
D:-----------------|-------------------|-----------------|----------------|
A:-----------------|-------------------|-----------------|----------------|
E:-----------------|-------------------|-----------------|----------------|
1 . 2 . 3 . 4 .
1 . 2 . 3 . 4 .
1 . 2 . 3 . 4 .
1 . 2 . 3 . 4
.
LA
LAm
e:-------------------|-----------------||
B:10-10----9-9-------|-------9-9-------||
G:-----------------9-|-9---------------||
D:-------------------|-----------------||
A:-------------------|-----------------||
E:-------------------|-----------------||
1 . 2 . 3 . 4 .
1 . 2 . 3 . 4 .
MI
MImaj7/SOL#
LA
C'e' chi mi vuole come vuole
LAm
MI
un po' piu' santo piu' criminale
MImaj7/SOL#

LA

un po' piu' nuovo, un po' piu' uguale


LAm
mi vuole come vuole
[Riff]
C'e' chi mi vuole per cliente
chi non mi vuole mai per niente
e' c'e' chi vuole le mie scuse
che cio' che sono l'ha offeso
SIm
LA
Di' un po' te come ti vogliono?
SIm
LA
di' un po' tu come ti vuoi?
MI
Tu come ti vuoi?
MI
maj7/SOL#
LA
LAm
[Rit] Sono vivo abbastanza, sono vivo abbastanza
MI
maj7/SOL#
LA
per di qua, comunque vada
LAm
sempre sulla mia strada
[Riff]
C'e' chi mi vuole piu' me stesso
e piu' profondo, piu' maledetto
e bravo padre e bravo a letto
c'e' chi mi vuole perfetto
Di' un po' te come ti vogliono?
di' un po' tu come ti vuoi?
Tu come ti vuoi?
[Rit]

Sono vivo abbastanza, sono vivo abbastanza


per di qua, comunque vada
sempre sulla mia strada

[Solo]
e:-------------------------------------------------|
B:-9----------9/10--10\9--9-----poi--------9/10/12-|
G:------------------------------dopo---------------|
D:-------------------------------------------------|
A:-------------------------------------------------|
E:-------------------------------------------------|
Di' un po' te come ti vogliono?
di' un po' tu come ti vuoi?
Tu come ti vuoi?
[Rit]

Sono vivo abbastanza, sono vivo abbastanza


per di qua, comunque vada
sempre sulla mia strada

[Outro][Chit1 suona Riff1]


[Chit2 suona Riff2]
===============================================
FORSE MI TROVO

==============
[Intro]

|LAm

|SOL

|LAm

|SOL

|FAmaj7 |DO

SOL4 SOL7|

TAB di Maurizio Urbani


Intro *Forse mi trovo*
//-------------------------------------------------------------\\-------------------------------------------------------------//-------------------------------------------------------------\\-------------------------------------------------------------//--2--2--5--5--2--2--5--3--2--2--5--7--2--2--5--3--2----------\\-------------------------------------------------------------Maurizio
REm7
SOL
Mi cerco nei tuoi occhi
MIm7
FA
perche' alla fine e' gioco di specchi
REm7
SOL
perche' alla fine e' un gioco
MIm7
FA
che non mi va di perdere
Mi cerco sulla tua pelle
che sai cosi' bene che sei cosi' bella
e allora mi cerco piu' a valle
sotto un respiro tiepido
DO
MIm7
[Rit] Forse mi trovo
REm7
FA
DO
forse non sono nemmeno lontano da me
MIm7
forse mi trovo
REm7
FA
e mi trovo bene
DO
MIm7
forse ti trovo
REm7
FA
per non cercarmi mai piu', mai piu'
[Solo 1]

|LAm

|SOL

|LAm

|SOL

|FAmaj7 |DO

Pensami alle dieci


pensami forte con la tua mano
anche se sto lontano
cercati un poco pure tu
Mi cerco mentre dormi
tra l'aria che muovi e quella che fermi
un metro fuori dai sogni
che quelli almeno sono tuoi
[Rit]

Forse mi trovo
forse non sono nemmeno lontano da me
forse mi trovo
e mi trovo bene

SOL4 SOL7|

forse ti trovo
per non cercarmi mai piu', mai piu'
[Solo 2]
[Rit]

|LAm

|SOL

|LAm

|SOL

|FAmaj7 |DO

SOL4 SOL7|

Forse mi trovo
forse non sono nemmeno lontano da me
forse mi trovo
e mi trovo bene
forse ti trovo
per non cercarmi mai piu', mai piu'

===============================
MISS MONDO 99
=============
TAB di Alessandro Marini
[Intro]
DO
SOL
LAm
DO
SOL
LAm
e:--|-----------------|-----------------|-----------------|----------------|
B:--|-----8-------8---|-----5-----------|-----8-------8---|-----5----------|
G:--|---9---9---7---7-|---5--/7-----5---|---9---9---7---7-|---5--/7----5---|
D:-5/10-------9-------|-7---------7-----|10-------9-------|-7---------7----|
A:--|-----------------|-----------------|-----------------|----------------|
E:--|-----------------|-----------------|-----------------|----------------|
1 . 2 . 3 . 4 .
1 . 2 . 3 . 4 .
1 . 2 . 3 . 4 .
1 . 2 . 3 . 4
.
DO
SOL
e:-----------------|
B:-----8-------8---|
G:---9---9---7---7-|
D:10-------9-------|
A:-----------------|
E:-----------------|
1 . 2 . 3 . 4 .
LAm
SOL
Guarda me io sono qua
FA
DO
SOL/SI
con tutto quello che vuol dire
LAm
SOL
sono pronto per meta'
FA
DO
SOL/SI
per meta' saro' a sentire
LAm
SOL
e poi non cambio mai
FA
DO SOL/SI
mi cambio tuti i giorni
LAm
SOL
sta girando il secolo
FA
DO
SOL/SI
RE

facci almeno divertire un po'


RE
divertire un po'
DO
FA
[Rit] Saranno lacrime d'amore
LAm
SOL
per miss mondo 99
MIm(?)
FA
DO
mandaci un bacio siamo tutti quanti qua
[Fill]

|DO

SOL |LAm

|DO

SOL |LAm

|LAm

RE
|

Guarda me io sono qua


coi conti che ci devi fare
fatti solo un po' piu' in la'
che non vedo il mondo bene
non cambiare mai
e cambia tutti i giorni
se vedi il mondo diglielo
che siamo qui per un motivo noi
un motivo noi
[Rit]

Saranno lacrime d'amore


per miss mondo 99
mandaci un bacio siamo tutti quanti qua
Saranno lacrime di gioia
per miss mondo 99
dai facci un po' vedere cosa c'e di la'

[Outro]
=================================================================
~~~~~~~~~~~~~~~~~~
LA PORTA DEI SOGNI
~~~~~~~~~~~~~~~~~~
[CRD posted by -Little Hakw-]
[TAB ignota :((( ]
Alla fine dei rit.
E
B
G
D
A
E

//----------------|
||----1-----1-----|
||--0-----0-------| Due volte. Poi ...
||3-----2-----0---|
||----------------|
\\----------------|

E
B
G
D
A
E

//----------------|---------|
||----1-----1-----|---------|
||--0-----0-------|---------|
||3-----2-----0---|3-2--3---|
||----------------|---------|
\\----------------|---------|

INTRO: Do Sol Fa Do Sol Do Sol

Do
Sol
E mi attacco alle stelle che altrimenti si cade
Fa
Do
Sol Do Sol
e poi alzo il volume di questo silenzio che fa stare bene
Do
Sol
e mi sa che sei quella che fa luce pian piano
Fa
Do
Sol Do Sol
chissa' come ci vedi e chissa' come ridi di quello che siamo
LaFa
E mi attacco alla buccia di questa notte
MiMi-7
Sol Do Sol [stop]
e salto, salto ma rimango gi
Fa Do
La porta dei sogni
Fa Do
la porta dei sogni
Fa Do
la porta dei sogni

Sol[stop]
Sol[stop]
Sol Do Sol Do[stop]
chiudi.la
tu

E mi attacco alle stelle tiro un po' a indovinare


mi predico un presente in cui non c'e' niente se non respirare
e se proprio sei quella fatti almeno guardare
non sai quanto ci manchi non tornano i conti a doverti trovare
e mi attacco alla luce di questa notte
e salto, salto ma rimango gi
La porta dei sogni
la porta dei sogni
la porta dei sogni chiudila tu
=================================================================
[NdT - Versione prelevata da IAMS, nessuno ha saputo indicarmi
l'origine, se l'autore vuole farsi avanti verra' citato.]
~~~~~~~~~~~~~~~~~~
HO ANCORA LA FORZA
~~~~~~~~~~~~~~~~~~
Ligabue - Guccini - Ligabue
[da Stagioni]
Intro: Re

Re

Mim

Mim7/Sib

Re
Ho ancora la forza
La
che serve a camminare
Mim
picchiare ancora contro
Sol
per non lasciarmi stare,
Sim
La
Mim7
ho ancora quella forza che ti serve quando dici "Si comincia"

Sol

Re
Ho ancora la forza
La4
di guardarmi attorno
Mim7
mischiando le parole
Sol
con due pacchetti al giorno
Sim
La
Sol
di farmi trovar l da chi mi vuole sempre nella mia camicia.
Mim7
Re
La4
Abito sempre qui da me,
Mim7
Sol
in questa stessa strada che non sai mai se c'e'
Sim
e al mondo sono andato
La
Mim
Solm7
Do
dal mondo son tornato sempre vivo.
Fa
Ho ancora la forza
Do
di starvi a raccontare
Solm7
le mie storie di sempre
Sib
di come posso amare
Rem
Do
Sib
di tutti quegli sbagli che per un motivo o l'altro so rifare.
Fa
Ho ancora la forza
Do
di chiedere anche scusa
Solm7
o di incazzarmi ancora
Sib
con la coscienza offesa,
Rem
Do
Sib
di dirvi che comunque la mia parte ve la posso garantire.
Solm
Fa
Do
Abito sempre qui da me,
Solm7
in questa stessa strada
Sib
che non sai mai se c'e'
Rem
nel mondo sono andato
Do
Solm Sibm Mib7
dal mondo son tornato sempre vivo.
Sol#

Sol#7

Do#

Midim

Sol#
Ho ancora la forza
Mib
di non tirarmi indetro,
Sibm
di scegliermi la vita

Do#
masticando ogni metro,
Fam
Mib
Do#
di far la conta degli amici andati e dire :"Ci vediam pi tardi"

Sibm

Sol#
Ho ancora la forza
Mib
di scegliere parole
Sibm
per gioco, per il gusto
Do#
di potermi sfogare,
Fam
Mib
perche', che piaccia o no, e' capitato che sia quello che so fare
Sibm
Sol#
Mib
Abito sempre qui da me,
Sibm
Do#
in questa stessa strada che non sai mai se c'e',
Fam
col mondo sono andato
Mib
Sibm
Do# Mib Sol#
col mondo son tornato sempre vivo

Do#

Da: "Pink Floyd" <francesco@inwind.it>


Oggetto: [TAB/CRD Album] Fuori come va? - Ligabue
Data: gioved 1 agosto 2002 17.14
Dopo tanta fatica, raccogliendo l'eredita' di Tigers, ho l'onore di
pubblicarvi le TAB e i CRD dell'ultimo album di Ligabue, canzone per
canzone.
Trascrivere, mettere insieme e portare su Internet queste
canzoni mi e' costato tempo e fatica: se usate tutto o parte di
questo canzoniere, non dimenticate di citare il mio nome. Grazie. :))))
Contribuite ad aumentare il numero di canzoni italiane disponibili sulla
rete!
Visitate e contribuite al newsgroup it.arti.musica.spartiti
---Ovviamente correzioni e commenti sono e saranno sempre i benvenuti.
(Comments and corrections welcome.)
==================================================================
ALBUM FUORI COME VA?
==================================================================
Words and music: Ligabue
Trascrizioni: Francesco Varriale <francesco@inwind.it>
Tranne: Libera uscita - TAB: Jack Alby Frusciante <rcappucci@omniway.sm>

Questa e' la mia vita - CRD di Fabio di IFML


Chissa' se in cielo passano gli Who - CRD di Zac di IAMS
Eri bellissima - CRD: Pinball Wizard(pinballwizard@katamail.com)
Canzoni incluse:
1. Nato per me (CRD e TAB intro)
2. Tutti vogliono viaggiare in prima (CRD e TAB completa)
3. Ti sento (CRD e TAB completa)
4. Questa e' la mia vita (CRD e TAB completa)
5. Tu che conosci il cielo (CRD e TAB completa)
6. Il campo delle lucciole (CRD)
7. Voglio volere (CRD)
8. Eri bellissima (CRD e TAB intro)
9. Libera uscita (CRD e TAB completa)
10. Tutte le strade portano a te(CRD e TAB completa)
11. In pieno rock'n'roll (CRD e TAB)
12. Chissa' se in cielo passano gli Who (CRD)
------------------------------------------------------------------

NOTA:
#----------------------------------PLEASE NOTE-------------------------------#
#This file is the author's own work and represents their interpretation
of the#
#song. You may only use this file for private study, scholarship, or
research.#
#----------------------------------------------------------------------------#
# File made with Guitar Tab Viewer IV http://digilander.iol.it/tommy/ #
#----------------------------------------------------------------------------#
--------------------------------------------SONG Title: Nato per me
ARTIST/GROUP: Ligabue
TRANSCRIBED By: Francesco@inwind.it
--------------------------------------------riff
----------2-2-3-2---2-2-2-2---3-3-3-3---2-2-4-2---2-2-2-2---2-2-2-2-----------------------------------------------------(riff)
Sono nato per me
Come fanno un po' tutti
Sembra sempre un po' troppo
Quello che non ho fatto e non mi basta mai niente

mi basta mai tutto quanto non bastera' mai


C'e' qualcuno che pu
Regolarmi il difetto?
E comunque lo sai
Che ti vengo a cercare
Che sono nato per me
Ma ti frega l'amore
Vieni qua e dimmelo vieni qua che lo so che a tua volta sei nata per te
Ci possiamo vedere
Ne possiamo parlare
G D
Dipende da me dipende da te
A
e' l'unica logica che c'e'
G
le cose che sei
D
Le cose che sai
A
Le cose che hai che hanno te
G
Dipende da te
D
Dipende da me
(riff)
Sono nato nel giorno
Dell'eclissi di luna
Non me l'hanno spiegato
Se era sfiga o fortuna
Tutto quello che ho tutto quello che so tutto quanto fa ridere un po'
Sono nato per me
Sara' mica il sistema.(?)
G D
Dipende da me dipende da te
A
e' l'unica logica che c'e'
G
le cose che sei
D
Le cose che sai
A
Le cose che hai che hanno te
G
Dipende da te
D
Dipende da me
G D
So che non basta
A
So che non basta niente
G D A
So che non bastera' mai
G D
So cosa pensi
A
Basta che basti tutto
G D A

Come se fosse facile


Sono nato per me
Paradiso ed inferno
Io che con me ci vivo
Ventiquattro ore al giorno
E non ci basta mai niente ci basta mai tutto quanto non bastera' mai
Perch ognuno di noi
e' il suo centro del mondo
G D
Dipende da me dipende da te
A
e' l'unica logica che c'e'
G
le cose che sei
D
Le cose che sai
A
Le cose che hai che hanno te
G D
So cosa pensi A
Basta che basti tutto
G D A
Come se fosse facile
G
dipende da te
D
Dipende da me
(riff)
#----------------------------------PLEASE NOTE-------------------------------#
#This file is the author's own work and represents their interpretation
of the#
#song. You may only use this file for private study, scholarship, or
research.#
#----------------------------------------------------------------------------#
# File made with Guitar Tab Viewer IV http://digilander.iol.it/tommy/ #
#----------------------------------------------------------------------------#
--------------------------------------------SONG Title: Tutti vogliono viaggiare in prima
ARTIST/GROUP: Ligabue
TRANSCRIBED By: Francesco@inwind.it
--------------------------------------------intro(palm muted riff 1)
F5 C5 G5 A5 C5
e|------------------------------------------------------------|
B|------------------------------------------------------------|
G|------------------------------------------------------------|
D|----------5xxxxxxxx-----------------------------------------|
A|3xxxxxxxx-3xxxxxxxx-5xxxxxxxx-7xxxxxx/10xx------------------|

E|1xxxxxxxx-----------3xxxxxxxx-5xxxxxx/-8xx------------------|
F5
Quelli come me
C5
si svegliano alle tre
G5 A5 C5
e dicono che i giorni sono corti.
F5
E poi quelli come me
C5
si svegliano a meta'
G5 A5 C5
e rimangono coi sogni mezzi aperti.
Prechorus 1:
e|------------------------------------------------------------|
B|---------------------8--------------------------------------|
G|-5-------------5-9-9---9--5-4-5-5---------------------------|
D|---7-5--5--5-7----------------------------------------------|
A|------------------------------------------------------------|
E|------------------------------------------------------------|

F5
Avrai ragione te
C5
a fare come fai
G5
a stare con chi vince
A5 C5
a cambiarti le camicie
F5
Ma sta a vedere che
C5
sappiamo gia' com'e'
G5 A5
ci riposiamo solo dopo morti
Riff2(nel Chorus)
e|------------------------------------------------------------|
B|------------------------------------------------------------|
G|---5-7-5-7---5-7-5-7----------------------------------------|
D|-5---------5------------------------------------------------|
A|------------------------------------------------------------|
E|------------------------------------------------------------|

e|------------------------------------------------------------|
B|------------------8-----------------------------------------|
G|---5-7-5-7---5-7--------------------------------------------|
D|-5---------5------------------------------------------------|
A|------------------------------------------------------------|
E|------------------------------------------------------------|

F C
Tutti vogliono viaggiare in prima
G Am C
l'hostess che c'ha tutto quel che vuoi.
F C
Tutti quanti con il drink in mano
G
e sotto come va?
Am C
fuori come va?
(palm muted) F5 C5 G5 A5 C5
fuori come va?
guit.1: palm mute riff 1
F5 C5 G5 A5 C5
e|------------------------------------------------------------|
B|------------------------------------------------------------|
G|------------------------------------------------------------|
D|----------5xxxxxxxx-----------------------------------------|
A|3xxxxxxxx-3xxxxxxxx-5xxxxxxxx-7xxxxxx/10xx------------------|
E|1xxxxxxxx-----------3xxxxxxxx-5xxxxxx/-8xx------------------|
guit.2: riff3
e|------------------------------------------------------------|
B|--------------8----8----------------------------------------|
G|---77777-555------------------------------------------------|
D|-5----------5---5-------------------------------------------|
A|------------------------------------------------------------|
E|------------------------------------------------------------|
F5
Quelli come me
C5
si va finche' ce n'e'
G5 A5 C5
ma e' come non venisse mai il momento.
F5
Quei progetti li
C5
e quei difetti li
G5 A5 C5
che ci fanno stare pi contenti.
Prechorus 1:
e|------------------------------------------------------------|
B|---------------------8--------------------------------------|
G|-5-------------5-9-9---9--5-4-5-5---------------------------|
D|---7-5--5--5-7----------------------------------------------|
A|------------------------------------------------------------|
E|------------------------------------------------------------|

F5
Avrai ragione te
C5
a fare come fai
G5
a startene da furbo
A5 C5
nel mondo dei pi furbi
F5
Ma sta a vedere che
C5
sappiamo gia' com'e'
G5 A5 C5
non ci teniamo a togliere il disturbo.
Guit.1: Riff2(nel Chorus)
e|------------------------------------------------------------|
B|------------------------------------------------------------|
G|---5-7-5-7---5-7-5-7----------------------------------------|
D|-5---------5------------------------------------------------|
A|------------------------------------------------------------|
E|------------------------------------------------------------|
e|------------------------------------------------------------|
B|------------------8-----------------------------------------|
G|---5-7-5-7---5-7--------------------------------------------|
D|-5---------5------------------------------------------------|
A|------------------------------------------------------------|
E|------------------------------------------------------------|
F C
Tutti vogliono viaggiare in prima
G Am C
l'hostess che c'ha tutto quel che vuoi.
F C
Tutti quanti con il drink in mano
G
e sotto come va?
Am C
fuori come va?
Guit.2: Riff4
e|------------------------------------------------------------|
B|---13-15--13-15------13-15-13--15---------------------------|
G|12---------------12-----------------------------------------|
D|------------------------------------------------------------|
A|------------------------------------------------------------|
E|------------------------------------------------------------|
e|----------------------------15------------------------------|
B|---13-15--13-15------13-15-----15---------------------------|
G|12---------------12-----------------------------------------|
D|------------------------------------------------------------|
A|------------------------------------------------------------|
E|------------------------------------------------------------|
F C

Tutti vogliono viaggiare in prima


G Am C
e che il viaggio non finisca mai
F C
tutti con il posto al finestrino
G
e sotto come va?
Am C
fuori come va?
Guit.1(palm muted riff 1)
F5 C5 G5 A5 C5
e|------------------------------------------------------------|
B|------------------------------------------------------------|
G|------------------------------------------------------------|
D|----------5xxxxxxxx-----------------------------------------|
A|3xxxxxxxx-3xxxxxxxx-5xxxxxxxx-7xxxxxx/10xx------------------|
E|1xxxxxxxx-----------3xxxxxxxx-5xxxxxx/-8xx------------------|
Guit.2:
e|------------------------------------------------------------|
B|---------------------8--------------------------------------|
G|-5-------------5-9-9---9--5-4-5-5---------------------------|
D|---7-5--5--5-7----------------------------------------------|
A|------------------------------------------------------------|
E|------------------------------------------------------------|
fuori come va?
e|15-------15-------15-------15-------------------------------|
B|---13-15----13-15----13-15----13--15------------------------|
G|------------------------------------------------------------|
D|------------------------------------------------------------|
A|------------------------------------------------------------|
E|------------------------------------------------------------|
fuori come va?
e|15-------15-------15-------15-------------------------------|
B|---13-15-----13-15----13-15----13--15-----------------------|
G|------------------------------------------------------------|
D|------------------------------------------------------------|
A|------------------------------------------------------------|
E|------------------------------------------------------------|
Guit.1: Riff2(nel Chorus)
e|------------------------------------------------------------|
B|------------------------------------------------------------|
G|---5-7-5-7---5-7-5-7----------------------------------------|
D|-5---------5------------------------------------------------|
A|------------------------------------------------------------|
E|------------------------------------------------------------|
e|------------------------------------------------------------|
B|------------------8-----------------------------------------|

G|---5-7-5-7---5-7--------------------------------------------|
D|-5---------5------------------------------------------------|
A|------------------------------------------------------------|
E|------------------------------------------------------------|
F
Siamo quelli che
C
da quelli come te
G Am
non si fanno mai pagar da bere.
C F
Perche' siamo quelli che
C
e' meglio se lo sai
G Am
con quelli come te son sempre pari.

e|15-------15-------15-------15-------------------------------|
B|---13-15-----13-15----13-15----13--15-----------------------|
G|------------------------------------------------------------|
D|------------------------------------------------------------|
A|------------------------------------------------------------|
E|------------------------------------------------------------|

C F C G Am C
Che qua tutti vogliono viaggiare in prima
F C
Tutti quanti con il drink in mano,
G
e sotto come va?
Am C
fuori come va?
F C G Am C
Tutti vogliono viaggiare in prima
F C
Tutti con il posto finestrino
G
e sotto come va?
Am C
fuori come va?
Outro:
e|13-13-13-13-13-13-13-13-12-12-12-12-12-12-12-12-12----------|
B|13-13-13-13-13-13-13-13-13-13-13-13-13-13-13-13-13----------|
G|------------------------------------------------------------|
D|------------------------------------------------------------|
A|------------------------------------------------------------|
E|------------------------------------------------------------|
e|13-13-13-13-13-13-13-13-12-12-12-12-12-12-12-12-12-13-------|
B|13-13-13-13-13-13-13-13-13-13-13-13-13-13-13-13-13-13-------|
G|------------------------------------------------------------|
D|------------------------------------------------------------|

A|------------------------------------------------------------|
E|------------------------------------------------------------|

e|13-13-13-13-13-13-13-13-12-12-12-12-12-12-12-12-12----------|
B|13-13-13-13-13-13-13-13-13-13-13-13-13-13-13-13-13----------|
G|------------------------------------------------------------|
D|------------------------------------------------------------|
A|------------------------------------------------------------|
E|------------------------------------------------------------|
e|13-13-13-13-13-13-13-13-12-12-12-12-12-12-12-12-12-13-------|
B|13-13-13-13-13-13-13-13-13-13-13-13-13-13-13-13-13-13-------|
G|------------------------------------------------------------|
D|------------------------------------------------------------|
A|------------------------------------------------------------|
E|------------------------------------------------------------|
by Francesco Varriale
#----------------------------------PLEASE NOTE-------------------------------#
#This file is the author's own work and represents their interpretation
of the#
#song. You may only use this file for private study, scholarship, or
research.#
#----------------------------------------------------------------------------#
# File made with Guitar Tab Viewer IV http://digilander.iol.it/tommy/ #
#----------------------------------------------------------------------------#

--------------------------------------------SONG Title: Ti Sento


ARTIST/GROUP: Ligabue
TRANSCRIBED By: Francesco@inwind.it
--------------------------------------------riff (x5)
(durante tutta la canzone)
e|--------------------|
B|--------------------|
G|--775777577757957---|
D|--555555555555555---|
A|--------------------|
E|--------------------|
strofa
G C Em D4 D7
C D Em Bm D C F

rit.
Em D C Em/B Am C/G D/F# D
Bm C C/Bm Am C
G C
Ti sento nell'aria che e' cambiata
Em
Che anticipa l'estate
D4 D7
E che mi strina un po'
C D Em
Io ti sento passarmi nella schiena
Bm D
La vita non e' in rima
C F
Per quello che ne so
G C
Ti sento nel mezzo di una strofa
Em
Di un pezzo che era loffio
D4 D7
E adesso non lo e' pi
C D Em
Io ti sento lo stomaco che si chiude
Bm D
Il resto se la ride
C F
Appena ridi tu
Em D C Em/B
qui con la vita non si pu mai dire
Am C/G D/F# D
Arrivi quando sembri andata via
Bm C
Ti sento dentro tutte le canzoni
C/Bm Am C
In un posto dentro che so io
G
Ti sento
C
E parlo di profumo
Em
T'infili in un pensiero
D4 D7
E non lo molli mai
C
Io ti sento
D Em
Al punto che disturbi
Bm D
Al punto che e' gia' tardi
C F
Rimani quanto vuoi
Em D C Em/B
qui con la vita non si pu mai dire
Am C/G D/F# D

Arrivi quando sembri andata via


Bm C
Ti sento dentro tutte le canzoni
C/Bm Am C
In un posto dentro che so sempre io

e|---12-10---------------12-10--------------------------------|
B|12-------12-10-12---12-------12-10-12-----------------------|
G|-------------------------------------------12-12h14-12------|
D|----------------------------------------14-------------14-12|
A|------------------------------------------------------------|
E|------------------------------------------------------------|
C
Io ti sento
D Em
C'ho il sole dritto in faccia
Bm D
E sotto la mia buccia
C F
Che cosa mi farai

e|------------------------------------------------------------|
B|17--19--15--12---19-----------------------------------------|
G|------------------------------------------------------------|
D|------------------------------------------------------------|
A|------------------------------------------------------------|
E|------------------------------------------------------------|
e|--------------------|
B|--------------------|
G|--775777577757957---|
D|--555555555555555---|
A|--------------------|
E|--------------------|
e|--------------------|
B|--------------------|
G|--775777577757957---|
D|--555555555555555---|
A|--------------------|
E|--------------------|
e|-------------------------------------------------------------|
B|-------------------------------------------------------------|
G|11-12-14-16-17--19-19-19-17-19-19-19-17-19-19-19-17-19-21-12-|
D|----------------17-17-17-17-17-17-17-17-17-17-17-17-17-17-12-|
A|-------------------------------------------------------------|
E|-------------------------------------------------------------|
#----------------------------------PLEASE NOTE-------------------------------#

#This file is the author's own work and represents their interpretation
of the#
#song. You may only use this file for private study, scholarship, or
research.#
#----------------------------------------------------------------------------#
# File made with Guitar Tab Viewer IV http://digilander.iol.it/tommy/ #
#----------------------------------------------------------------------------#
--------------------------------------------SONG Title: Questa e' la mia vita
ARTIST/GROUP: Ligabue
TAB TRANSCRIBED By: Francesco@inwind.it
CRD: Fabio di IFML
---------------------------------------------

INTRO
(main riff)
e|-------------------------------------------------|
B|-------------------------------------------------|
G|-4/12-11-4/12-12b14r12-11-4/12-11----------------|
D|-------------------------------------------------|
A|-------------------------------------------------|
E|-------------------------------------------------|
(riff 2)
e|--------------------------------------------------------B|--------------------------------------------------------G|---4-4-4-4-5-5-5-5-7-7-7-7-7---4-4-4-4-5-5-5-5-7-7-7-7-7D|---5-5-5-5-5-5-5-5-5-5-5-5-5---5-5-5-5-5-5-5-5-5-5-5-5-5A|--------------------------------------------------------E|-----------------------------------------------------------------------------------3-3-2-3-3-2---|
---------------------------3-3-3-3-3-3---|
-4-4-4-4-5-5-5-5-7-7-7-7-7-2-2-2-3-3-2---|
-5-5-5-5-5-5-5-5-5-5-5-5-5---------------|
-----------------------------------------|
-----------------------------------------|
Strofa: SOL DO9 MIm RE4 RE
Rit: LAm DO SOL SOL/FA# LAm DO
Questa e' la mia vita
e|--------------------------------------------------------------------|
B|--------------------------------------------------------------------|
G|4/12--4/12-12b14r12-11-4/12-11----12b14r12-11-----12b14r12-11-------|
D|-------------------------------12-------------12--------------------|
A|--------------------------------------------------------------------|

E|--------------------------------------------------------------------|
Se ho bisogno te lo dico
Sono io che guido
Io che vado fuori strada
Sempre io che pago
Non e' mai successo che pagassero per me
Questa e' la mia vita
e|----------------------------------------------------------------------|
B|----------------------------------------------------------------------|
G|4/12-11-4/12-12b14r12-11-4/12-11----12b14r12-11-----12b14r12-11-------|
D|---------------------------------12-------------12--------------------|
A|----------------------------------------------------------------------|
E|----------------------------------------------------------------------|
Se entri chiedimi permesso
Portami a una gita
Fammi ridere di gusto
Porta la tua vita
Che vediamo che succede a mescolarle un po'
Am
E ora che ci sei
C
Dato che ci sei
G G/F#
Fammi fare un giro su chi non son stato mai
Am
Dato che ci sei
C
Come io vorrei
(riff 2)
e|--------------------------------------------------------B|--------------------------------------------------------G|---4-4-4-4-5-5-5-5-7-7-7-7-7---4-4-4-4-5-5-5-5-7-7-7-7-7D|---5-5-5-5-5-5-5-5-5-5-5-5-5---5-5-5-5-5-5-5-5-5-5-5-5-5A|--------------------------------------------------------E|-----------------------------------------------------------------------------------3-3-2-3-3-2---|
---------------------------3-3-3-3-3-3---|
-4-4-4-4-5-5-5-5-7-7-7-7-7-2-2-2-3-3-2---|
-5-5-5-5-5-5-5-5-5-5-5-5-5---------------|
-----------------------------------------|
-----------------------------------------|
Questa e' la mia vita
e|-----------------------------------------------------------------|
B|-----------------------------------------------------------------|
G|4/12-11-4/12-11-12-14-12-11-----12b14r12-11-----12b14r12-11------|
D|----------------------------12-------------12--------------------|
A|-----------------------------------------------------------------|
E|-----------------------------------------------------------------|

Sono quello che ci pensa


Porto un paio d'ore
Una notte bella densa
Trattamela bene
Che al momento ho solo questa
E poi vedremo poi
Questa e' la mia vita
e|----------------------------------------------------------------------|
B|----------------------------------------------------------------------|
G|4/12-11-4/12-12b14r12-11-4/12-11----12b14r12-11-----12b14r12-11-------|
D|---------------------------------12-------------12--------------------|
A|----------------------------------------------------------------------|
E|----------------------------------------------------------------------|
Certi giorni non si batte
Certi altri meno
e' cos che va per tutti
Certi giorni e' poca
Certi giorni sembra troppa
E invece non lo e' mai
Am
E ora che ci sei
C
Dato che ci sei
G G/F#
Fammi fare un giro su chi non son stato mai
Am
Dato che ci sei
C
Come io vorrei
(riff 2)
e|--------------------------------------------------------B|--------------------------------------------------------G|---4-4-4-4-5-5-5-5-7-7-7-7-7---4-4-4-4-5-5-5-5-7-7-7-7-7D|---5-5-5-5-5-5-5-5-5-5-5-5-5---5-5-5-5-5-5-5-5-5-5-5-5-5A|--------------------------------------------------------E|-----------------------------------------------------------------------------------3-3-2-3-3-2---|
---------------------------3-3-3-3-3-3---|
-4-4-4-4-5-5-5-5-7-7-7-7-7-2-2-2-3-3-2---|
-5-5-5-5-5-5-5-5-5-5-5-5-5---------------|
-----------------------------------------|
-----------------------------------------|
Questa e' la mia vita
Tieniteli tu i consigli
Io non l'ho capita
Figurati se tu fai meglio
e|-----------------------|
B|-8---7-----------------|
G|---------7-------------|

D|--------------7h9------|
A|-----------------------|
E|-----------------------|
Porta la tua vita
Che vediamo che succede a mescolarle un po'
Am
E ora che ci sei
e|8/10-8/10--------------8/10---------------------------------|
B|-------------12--10--8--------------------------------------|
G|------------------------------------------------------------|
D|------------------------------------------------------------|
A|------------------------------------------------------------|
E|------------------------------------------------------------|
C
Dato che ci sei
G G/F#
Fammi fare un giro su chi non son stato mai
Am
Dato che ci sei
C
Come io vorrei
(riff 2)
e|--------------------------------------------------------B|--------------------------------------------------------G|---4-4-4-4-5-5-5-5-7-7-7-7-7---4-4-4-4-5-5-5-5-7-7-7-7-7D|---5-5-5-5-5-5-5-5-5-5-5-5-5---5-5-5-5-5-5-5-5-5-5-5-5-5A|--------------------------------------------------------E|-----------------------------------------------------------------------------------3-3-2-3-3-2---|
---------------------------3-3-3-3-3-3---|
-4-4-4-4-5-5-5-5-7-7-7-7-7-2-2-2-3-3-2---|
-5-5-5-5-5-5-5-5-5-5-5-5-5---------------|
-----------------------------------------|
-----------------------------------------|
outro
e|------------------------------------------------------------|
B|------------------------------------------------------------|
G|----0-----0-----0------0------0--0--0-----------------------|
D|------------------------------------------------------------|
A|------------------------------------------------------------|
E|-3-----3-----3-----3------3---------------------------------|
e|------------------------------------------------------------|
B|------------------------------------------------------------|
G|----0-----0-----0------0------0--0--0-----------------------|
D|------------------------------------------------------------|
A|-3-----3-----3-----3------3---------------------------------|
E|------------------------------------------------------------|

e|------------------------------------------------------------|
B|------------------------------------------------------------|
G|----0-----0-----0------0------0--0--0-----------------------|
D|-2-----2-----2-----2------2---------------------------------|
A|------------------------------------------------------------|
E|------------------------------------------------------------|
e|------------------------------------------------------------|
B|------------------------------------------------------------|
G|-----2---2---4---2---0--------------------------------------|
D|--0---------------------------------------------------------|
A|------------------------------------------------------------|
E|------------------------------------------------------------|

#----------------------------------PLEASE NOTE-------------------------------#
#This file is the author's own work and represents their interpretation
of the#
#song. You may only use this file for private study, scholarship, or
research.#
#----------------------------------------------------------------------------#
# File made with Guitar Tab Viewer IV http://digilander.iol.it/tommy/ #
#----------------------------------------------------------------------------#

--------------------------------------------SONG Title: Tu che conosci il cielo


ARTIST/GROUP: Ligabue
TRANSCRIBED By: Francesco@inwind.it
--------------------------------------------(standard tuning)
intro
C C7+ C C7+ Am7 Am7/9 Am7 Am7/9
|-----5/77----5/77------5/77------5/77-------|
|--5555-55-5555-55----555-55----555-55-------|
|--5555-55-5555-55----555-55----555-55-------|
|--5555-55-5555-55----777-77----777-77-------|
|--------------------------------------------|
|--------------------------------------------|
F7+ F4/7+ D4 D
|-----------------------------------3--3--2-2---|
|11--1h3p1-----1-----1--3/5 3-1-----3--3--3-3---|
|22--------0h2-----2------------2---2--2--2-2---|
|33-3------------3------------------0-----------|
|-----------------------------------------------|
|-----------------------------------------------|

Tu
Che conosci il cielo
Saluta Dio per me
E digli che sto bene
Considerando che
Che non conosco il cielo
Per conosco te
Mi va di ringraziare
Puoi farlo tu per me?
Che intanto sono in

Chorus (guit.1) + (guit.2)


F7 C C/B F7 C C/B D7 D
|-15--15--15--15--15--15-----|
|---13--13--13--13--13--13---|
|----------------------------|
|----------------------------|
|----------------------------|
|----------------------------|

|-0--0------0---0-----------------|
|-1--1--1---1---1--1---77-7h9p7---|
|-2--0------2---0--0---77-7-7-7---|
|-3--2--2---3---2--2---55-5-5-5---|
|----3--2-------3--2--------------|
|---------------------------------|

Viaggio
Digli pure che io sono in
Viaggio
Non lo so dove vado ma
Viaggio
E gli porter i miei
Souvenir
Tutti quanti i miei
Souvenir

1st solo
|----------------------------------------------------------8h10p8
|--------------------------------------------8-8h10p8----8------|-5/12\5-5-10-9~-7-5-5/12\5-5-10-9~-7-5/--10----------10--------|---------------------------------------------------------------|---------------------------------------------------------------|----------------------------------------------------------------------------8h10p8------8h10---|
----8-8h10p8--------10-8--------|
-10-----------------------------|
--------------------------------|
--------------------------------|
--------------------------------|
e|-------------------------|
B|-------------------------|
G|--7h9-9/11-9/10\5--------|
D|8------------------------|
A|-------------------------|
E|-------------------------|

Tu che conosci il cielo


E poi conosci me
Le sai le mie paure
Mi sa che sai il perch
Che non conosco il cielo
Far come potr
Star con tanta gente
Per stare solo un po'
Facendolo il mio
Chorus (guit.1) + (guit.2)
F7 C C/B F7 C C/B D7 D
|-15--15--15--15--15--15-----|
|---13--13--13--13--13--13---|
|----------------------------|
|----------------------------|
|----------------------------|
|----------------------------|

|-0--0------0---0-----------------|
|-1--1--1---1---1--1---77-7h9p7---|
|-2--0------2---0--0---77-7-7-7---|
|-3--2--2---3---2--2---55-5-5-5---|
|----3--2-------3--2--------------|
|---------------------------------|

Viaggio
Cerco il mio pomeriggio di
Maggio
Non lo so dove vado ma
Viaggio
E gli porter i miei
Souvenir
Tutti quanti
I miei souvenir
2nd solo
|--------------------------------------------------------------------10|---------------------------------------------6-8/10--10--8--6--8------|-5/12\5-5-10-9~-7-5-5/12\5-5-10-9~-7-5--7--5----------------------7---|----------------------------------------------------------------------|----------------------------------------------------------------------|---------------------------------------------------------------------------------------------------------------------------------------------------------------12b14-12-10-7-10-10--7---12/14\12---5/16----------------------------------------------------------------------------------------------------------------------------------------

#----------------------------------PLEASE NOTE-------------------------------#
#This file is the author's own work and represents their interpretation
of the#
#song. You may only use this file for private study, scholarship, or
research.#
#----------------------------------------------------------------------------#

# File made with Guitar Tab Viewer IV http://digilander.iol.it/tommy/ #


#----------------------------------------------------------------------------#
--------------------------------------------SONG Title: Il campo delle lucciole
ARTIST/GROUP: Ligabue
TRANSCRIBED By: Francesco@inwind.it
---------------------------------------------

Intro
Am D Bm C C/B

Am D Bm
Questa e' la tua prossima fermata
C C/B Am
Dove io t'aspetto gia' un po'
D Bm C C/B Am
Dove sta tranquilla che non ci sara' nessuno
D Bm
So che arriverai emozionata
C C/B Am
E mi hai detto solo "perch no?"
D Bm C C/B
Voglio che mi balli una canzone nuova
Am
Proprio qui
D
Che si pu
Em C
Nel campo delle lucciole
G G/F#
Ci siamo gia' detti tutto tacendo
Em C
Nel campo delle lucciole
G G/F#
Tutte le luci che vanno e che vengono
Em C
Nel campo delle lucciole
G G/F# Am
Sotto la vigna a fare la pace con Dio
Siamo proprio fuori dalla festa
Ma la festa vera siamo noi
Dicono che il premio lo prendiamo un'altra vita
Voglio che ci ridi in questo posto
Perch qui le stelle contano
E l'erba e' solamente una parte del prurito
Che tu hai
Che io ho
Em C

Nel campo delle lucciole


G G/F#
Ci siamo gia' detti tutto tacendo
Em C
Nel campo delle lucciole
G G/F#
Tutte le luci che vanno e che vengono
Em C
Nel campo delle lucciole
G G/F# Am
Sotto la vigna a fare la pace con Dio
Dicon tutti che la vita e' corta
Basta che ti giri un attimo
E capisci che non riesci a farci stare tutto
Ma questa e' la tua prossima fermata
Dove io t'aspetto un altro po'
Dove se ti porti dietro te sara' perfetto
Proprio qui
Che si pu
Em C
Nel campo delle lucciole
G G/F#
Ci siamo gia' detti tutto tacendo
Em C
Nel campo delle lucciole
G G/F#
Tutte le luci che vanno e che vengono
Em C
Nel campo delle lucciole
G G/F# Am
Sotto la vigna a fare la pace con Dio
#----------------------------------PLEASE NOTE-------------------------------#
#This file is the author's own work and represents their interpretation
of the#
#song. You may only use this file for private study, scholarship, or
research.#
#----------------------------------------------------------------------------#
# File made with Guitar Tab Viewer IV http://digilander.iol.it/tommy/ #
#----------------------------------------------------------------------------#
--------------------------------------------SONG Title: Voglio volere
ARTIST/GROUP: Ligabue
TRANSCRIBED By: francesco@inwind.it
--------------------------------------------Intro:
G C F C Dm
G C F C G

G
C
Voglio un mondo comico
F
C
Dm
Voglio un mondo che faccia ridere
G
C
Un cielo comodo
F
C
G
Che qualcuno s'affacci a rispondere
G
C
Voglio svegliarmi quando voglio
F C Dm
Da tutti i miei sogni
G C
Voglio trovarti sempre qui
F C G
Ogni volta che io ne ho bisogno
Dm F
Voglio volere tutto cos
C G
Voglio riuscire a non crescere
Dm F
Voglio portarti in un posto che
C G
Tu proprio non puoi conoscere
Dm F
Voglio tenere qualcosa per me
C G Dm
Qualcosa che sia per me
F
Per me
G C
Voglio il tempo libero
F C Dm
Si ma libero proprio ogni attimo
G C
E alzare il minimo
F C G
Con la vita che mi fa solletico
G C
Voglio restare sempre sveglio
F C Dm
Con tutti i miei sogni
G C
Voglio tornare vergine
F C G
Ogni volta che io ce n'ho voglia
Dm F
Voglio volere tutto cos
C G
Voglio riuscire a non crescere
Dm F
Voglio portarti in un posto che
C G
Tu proprio non puoi conoscere
Dm F

Voglio tenere qualcosa per me


C G Dm
Qualcosa che sia per me
F
Per me
G Am
Voglio volere
F C G
Io voglio un mondo all'altezza dei sogni che ho
G Am
Voglio volere
F C G
Voglio deciderlo io se mi basta o se no
G Am
Voglio volere
F C Dm F
Voglio godermela tutta fin quando si pu
G C
Voglio un mondo comico
F C Dm
Che se ne frega se sembra ridicolo
G C
Un mondo facile
F C G
Che paga lui e vuol fare lo splendido
G C
Voglio non dire mai "e' tardi"
F C Dm
Oppure "peccato"
G C
Voglio che ogni attimo
F C G
Sia sempre meglio di quello passato
Dm F
Voglio volere tutto cos
C G
Voglio riuscire a non crescere
Dm F
Voglio portarti in un posto che
C G
Tu proprio non puoi conoscere
Dm F
Voglio tenere qualcosa per me
C G Dm
Qualcosa che sia per me
F
Per me

G Am
Voglio volere
F C G
Io voglio un mondo all'altezza dei sogni che ho
G Am
Voglio volere

F C G
Voglio
G Am
Voglio
F C Dm
Voglio

deciderlo io se mi basta o se no
volere
F
godermela tutta fin quando si pu

#----------------------------------PLEASE NOTE-------------------------------#
#This file is the author's own work and represents their interpretation
of the#
#song. You may only use this file for private study, scholarship, or
research.#
#----------------------------------------------------------------------------#
# File made with Guitar Tab Viewer IV http://digilander.iol.it/tommy/ #
#----------------------------------------------------------------------------#
--------------------------------------------SONG Title: Eri bellissima
ARTIST/GROUP: Ligabue
TRANSCRIBED By: Francesco@inwind.it
TAB By: Francesco@inwind.it
CRD By: Pinball Wizard(pinballwizard@katamail.com)
---------------------------------------------

Am Em G D
Riff :
e|-------8-7-5----------------------10------------------------|
B|------------------8------8--8-8-7---------------------------|
G|-------------5h7-----5h7----7-7-7-7-------------------------|
D|------------------------------------------------------------|
A|------------------------------------------------------------|
E|-5-5--------------------------------------------------------|
Am Em G D
Eri bellissima lasciatelo dire
E anche stavolta so che non mi crederai
Eri davanti a me davanti agli occhi del bambino
E gli occhi del bambino quelli non li danno proprio indietro
Am Em G D
Mai Credimi: mai
Am Em G D
Mai Ti dico: mai
Eri sanissima: ostrica e lampone
Sulle mie dita c'eri sempre e solo te
Ti davi un attimo e poi ti nascondevi bene
Am Em G D B7
Io l'ho capito che sei sempre stata grande pi di me

C G
Ma adesso dimmi Com'e' andata Com'e' stato
B7 Em
Il viaggio di una vita l con te? Io spero solo
C G B7 Em
Tutto bene Tutto come Progettavate voi da piccole
C
Stai bene l con te? Stai bene l con te?
Am Em G D
Stai bene l con te
Am Em G D
Fragile e piccola con le tue paure
Mi costringevi a nasconderti le mie
Sapevi ridere sapevi il tuo sapore
Am Em G D B7
Te la godevi ad occupare tutte le mie fantasie
C G
Ma adesso dimmi Com'e' andata Com'e' stato
B7 Em
Il viaggio di una vita l con te? Io spero solo
C G B7 Em
Tutto bene Tutto come Progettavate voi da piccole
C
Stai bene l con te? Stai bene l con te?
Stai bene l...
Am Em G D
Eri bellissima lasciatelo dire
Eri di tutti ma non lo sapevano
E tu lo sapevi che facevi gola e soggezione
Am Em G D B7
Siamo stati insieme e comunque non mi hai conosciuto mai
C G
Ma adesso dimmi Com'e' andata Com'e' stato
B7 Em
Il viaggio di una vita l con te? Io spero solo
C G B7 Em
Tutto bene Tutto come Progettavate voi da piccole
C
Stai bene l con te? Stai bene l con te?
Am Em G D
Stai bene l con te
Am Em G D x3

#----------------------------------PLEASE NOTE-------------------------------#
#This file is the author's own work and represents their interpretation
of the#
#song. You may only use this file for private study, scholarship, or
research.#
#----------------------------------------------------------------------------#
# File made with Guitar Tab Viewer IV http://digilander.iol.it/tommy/ #

#----------------------------------------------------------------------------#

--------------------------------------------SONG Title: LIBERA USCITA


ARTIST/GROUP: LIGABUE
TRANSCRIBED By: Francesco@inwind.it
TABS by : Jack Alby Frusciante <rcappucci@omniway.sm>
--------------------------------------------intro + strofa
-----------------------------------------------------------------------------------------------------6----6h7-----7-----6----4-------------------7----7-------7-----7----7----------------------------------------------------------------------------------------------A
E non ci prendono i quarant'anni
Bm
E non ci prende Bill Gates
C#m D
E non ci prendono i sondaggi che non ci prendono con noi
A
E non ci prendono vecchie balle
Bm
Nemmeno nuove nostalgie
C#m D
Ci hanno promesso un grande futuro e poi ce l'han tolto c'han detto
"scusate" e cosi' sia
riff
--------------------------------------------------------------------------------------------------------------------------------------------------------------------------------------------------------------------------------------------7-7-----7-7------------5h7--------7--7------7-7------------------------------------------------5h7---------------------------------5--7p5--------------5------5---------5----------------5----------5---------------------8b9--5--E non ci prendono sul serio
D'altronde non l'han fatto mai
Siam sempre stati il pesce d'aprile anche quando l'aspetti anche quando
lo sai
E non ci prendono comodamente
N con il loro dai e dai
N con il loro chi tace acconsente noi non abbiamo taciuto mai

A
E non ci beccano pi
Bm
E non ci provano pi
C#m D
Non se lo chiedono pi cosa facciamo qui nelle scarpe da corsa

Riff Chorus:
-----------------------------------------------------------------------------------------------------------13b14---------------13b14---------14--14--------------14--14-------------------------------------------------------------------------------------------------------A Bm
Libera uscita
C#m D
In libero mondo
A Bm C#m D
Libera scelta di dirlo io com'e' che mi spendo.
Ending Chorus:
------------------------------------------------------------44-----------------0--------44--------------4-----------22----------5---------------------------------------com'e'. com'e'
E non ci mettono il costume
E non ci prendono l'energia
Abbiamo deciso che crederci ancora non sia una brutta malattia
E non ci cambiano il biglietto
E non ci cambiano l'idea
Siam sempre stati quelli che loro dicevano sono gia' andati via
E non ci beccano pi
E non ci provano pi non se lo chiedono pi cosa facciamo qui nelle
nostre
mutande
Riff Chorus:
-----------------------------------------------------------------------------------------------------------13b14---------------13b14---------14--14--------------14--14-------------------------------------------------------------------------------------------------------Libera uscita
In libero mondo
Libera scelta di dirlo io com'e' che mi spendo
Libera uscita
Senza rincorsa

Libera scelta di dirlo noi cos'e' che abbiam perso.


------------------------------------------------------------44-----------------0--------44--------------4-----------22----------5---------------------------------------se c'e'. se c'e'

riff
--------------------------------------------------------------------------------------------------------------------------------------------------------------------------------------------------------------------------------------------7-7-----7-7------------5h7--------7--7------7-7------------------------------------------------5h7---------------------------------5--7p5--------------5------5---------5----------------5----------5---------------------8b9--5---

outro:
A Bm C#m D
e alla fine del ritornello fa cosi:
------------------------------------------------------------44-----------------0--------44--------------4-----------22----------5---------------------------------------#----------------------------------PLEASE NOTE-------------------------------#
#This file is the author's own work and represents their interpretation
of the#
#song. You may only use this file for private study, scholarship, or
research.#
#----------------------------------------------------------------------------#
# File made with Guitar Tab Viewer IV http://digilander.iol.it/tommy/ #
#----------------------------------------------------------------------------#

--------------------------------------------SONG Title: Tutte le strade portano a te

ARTIST/GROUP: Ligabue
TRANSCRIBED By: francesco@inwind.it
--------------------------------------------riff (clean guit.)
-----------------6-6-5------5------------------------ x2
---------------------------------------------6-6-5--------3---------------------------- x2
--------------------------------------------------6-6-5-------2------------- x2
----------------------------------------------------------------6-6-5--------3---------------------------- x2
-------------------------------

strofa
C C/Bb C/A C/Bb C
Che vento che tira
Taglia il respiro
Spinge un po' in la'
Forse ci vuol cambiare
Mi sa che non ce la fara'
Mi riesci a sentire
In questo rumore?
Vieni un po' qua
Fammi sentire il mare
Al centro di questa citta'
bridge

(palm mute)
C Bb A Bb C
Tu che sai ci che so
Sai la vita che ho
Riparati un po'
Forse ti piove dentro
Usa la casa che ho
rit
C C/Bb C/A C/Bb C
Fino a che
Tutte le strade portano a te
Lascia che piova pure
Prendiamo il sole che c'e'
Fino a che
Tutte le strade portano a te
Non ci si pu sbagliare
Prendiamo il tempo che c'e'
------15--------15----------13-----13-13-----13-13-----------------------------------------------------------------------------------------------------------

strofa
C C/Bb C/A C/Bb C
Il mondo non gira
O almeno non come
Volevi tu
Come ci avevan detto
Quando era buona un'idea
solo
-------------------------------------------------13--11----------3/9--3/10--10-----------12--10-------------------------------------------------------------------------------------------------bridge
(palm mute)
C Bb A Bb C

Tu che sei ci che sei


Che non cambierai mai
Promettimi che
Ci sara' sempre un posto
Che tieni caldo per me

rit
C C/Bb C/A C/Bb C
Fino a che
Tutte le strade portano a te
Lascia che piova pure Prendiamo il sole che c'e'
Tutte le strade portano a te
Non ci si pu sbagliare
Prendiamo il tempo che c'e'
outro
------15--------15----------13-----13-13-----13-13----------------------------------------------------------------------------------------------------------#----------------------------------PLEASE NOTE-------------------------------#
#This file is the author's own work and represents their interpretation
of the#
#song. You may only use this file for private study, scholarship, or
research.#
#----------------------------------------------------------------------------#
# File made with Guitar Tab Viewer IV http://digilander.iol.it/tommy/ #
#----------------------------------------------------------------------------#
--------------------------------------------SONG Title: Chissa' se in cielo passano gli Who
ARTIST/GROUP: Ligabue
TRANSCRIBED By: Francesco@inwind.it
CRD By: Zac
--------------------------------------------

Bb
F Am Bb
E buonanotte a tutti i suonatori
F Am Bb

a quelli che la devono far fuori


Dm Am Bb
a chi c'ha il mondo sempre pi lontano
Gm C F
perche' ha vissuto sempre contromano
Am Bb
a chi non butta via la notte coi pensieri
F Am Bb
a quelli che una coppia e' gia' una folla
F Am Bb
e dicono che il cielo sia una balla
Dm Am Bb
a quelli che da soli ci stan stretti
Gm C F
e pensano che il cielo sia di tutti
Am Bb
a lui e lei che stanno insieme solo con la colla
C Gm Bb
E poi a quelli che non ritornano,
C Gm Bb
certo lass, forse lass,
C Gm Bb
sono capaci di non dormire mai pi
F Am Bb
Chissa' se in cielo passano gli Who
F Am Bb
Chissa se in cielo passano gli Who
Dm Am Bb
Chissa' che nome d'arte avra' il dj
Gm C F
se sceglie sempre e solo tutto lui
Am Bb
se prende le richieste che gli fai...
F Am Bb (x2)
a chi decide di ammazzare il tempo
e il tempo invece servirebbe vivo
a chi sta in giro perche' non ha scelta
perche' comunque il sonno non arriva
a quelli che ogni notte puoi giurarci son presenti
E buonanotte a chi la sa godere,
a quelli che han bisogno di star male,
a chi ha paura di restare fermo,
e sogna un p pi forte quando e' sveglio,
a quelli che non hanno mai saputo dove andare,
C Gm Bb
E poi a quelli che non salutano,
C Gm Bb
certo lassu', forse lassu',
C Gm Bb
sono capaci di non sognare mai piu'
F Am Bb
Chissa' se in cielo passano gli Who
F Am Bb
Chissa se in cielo passano gli Who
Dm Am Bb
Chissa' che nome d'arte avra' il dj
Gm C F

se sceglie sempre e solo tutto lui


Am Bb
se prende le richieste che gli fai...
F Am Bb (x2)
------------------------------------------------------------------------File made with Guitar Tab Viewer IV (http://digilander.iol.it/tommy/)
March 2001 by Tommaso Carullo (guitartabviewer@libero.it)