Sei sulla pagina 1di 4

Sincerit Chords by ARISA

+
|
|
|
|
|
+

--------------------------------------------------------------------- +
Ultimate Guitar Tabs Archive - your #1 source for tabs!
|
http://www.ultimate-guitar.com/
|
|
Over 1,000,000 guitar, guitar pro and bass tabs! Also lessons
|
news and guitar forums!
|
--------------------------------------------------------------------- +

Artist: ARISA
Song: Sincerit
Bb
Sincerit
Cm
Adesso tutto cos semplice
F7
Con te che sei lunico complice
Bb
F7
Di questa storia magica
Bb
Sincerit
Cm
Un elemento imprescindibile
F7
Per una relazione stabile
Bb
F7
Che punti alleternit
Cm
Adesso un rapporto davvero
F7
Ma siamo partiti da zero
Bb
Allinizio era poca ragione
G7
Nel vortice della passione
Cm
E fare e rifare lamore
F7
Per ore, per ore, per ore
Bb
Aver poche cose da dirsi
G7
Paura ed a volte pentirsi
Cm
F7
Ed io coi miei sbalzi dumore
Bb
G7
E tu con le solite storie
Cm
F7
Lasciarsi ogni due settimane
Ab
Bugie per non farmi soffrire
G7
Ma a volte era meglio morire
C
Sincerit
Dm
Adesso tutto cos semplice
G7
Con te che sei lunico complice
C
G7
Di questa storia magica
C
Sincerit
Dm
Un elemento imprescindibile
G7
Per una relazione stabile
C
G7
Che punti alleternit
Dm

Adesso sembriamo due amici


G7
Adesso noi siamo felici
C
Si litiga quello normale
A7
Ma poi si fa sempre lamore
Dm
Parlando di tutto e di tutti
G7
Facciamo duemila progetti
C
Tu a volte ritorni bambino
A7
Ti stringo e ti tengo vicino
D

Sincerit
Em
Scoprire tutti i lati deboli
A7
Avere sogni come stimoli
D
A7
Puntando alleternit
G7+
D
Adesso tu sei mio
A
E ti appartengo anchio
Em
G
E mano ella mano dove andiamo si vedr
D
C
Il sogno va da se, regina io e tu re
A7
Di questa storia sempre a lieto fine
D
Sincerit
Em
Adesso tutto cos semplice
A7
Con te che sei lunico complice
D
A7
Di questa storia magica
D
Sincerit
Em
Un elemento imprescindibile
A7
Per una relazione stabile
D
A7
Che punti alleternit
D
A7
Che punti alleternit
D
Che punti alleternit
END
+--------------------------------------------------------------------------+
| This file is the author's own work and represents their interpretation
|
| of the song. You may only use this file for private study, scholarship, |
| or research.
|
+--------------------------------------------------------------------------+
Ultimate-Guitar.Com 2016
Show/hide chords diagrams

Add more chord diagrams to the list:

G
E
B
G
D
A
E

|---|---|-3-|---|---|
|---|---|---|---|---|
|---|---|---|---|---|
|---|---|---|---|---|
|---|-1-|---|---|---|
|---|---|-2-|---|---|

A
o
o
o
o
o
o

E
B
G
D
A
E

|---|---|---|---|---|
|---|-3-|---|---|---|
|---|-2-|---|---|---|
|---|-1-|---|---|---|
|---|---|---|---|---|
|---|---|---|---|---|

G7+
o
o
o
o
o
x

E
B
G
D
A
E

|-X-|---|---|---|---|
|-X-|---|---|-4-|---|
|-X-|---|-3-|---|---|
|-X-|---|---|---|---|
|-X-|---|---|---|---|
|---|---|-2-|---|---|

o
o
o
o
o
o

1 fr.

Em
E
B
G
D
A
E

|---|---|---|---|---|
|---|---|---|---|---|
|---|---|---|---|---|
|---|-2-|---|---|---|
|---|-1-|---|---|---|
|---|---|---|---|---|

D
o
o
o
o
o
o

E
B
G
D
A
E

|---|-2-|---|---|---|
|---|---|-3-|---|---|
|---|-1-|---|---|---|
|---|---|---|---|---|
|---|---|---|---|---|
|---|---|---|---|---|

Dm
E
B
G
D
A
E

|-1-|---|---|---|---|
|---|---|-3-|---|---|
|---|-2-|---|---|---|
|---|---|---|---|---|
|---|---|---|---|---|
|---|---|---|---|---|

A7
o
o
o
o
x
x

E
B
G
D
A
E

|---|---|---|---|---|
|---|-2-|---|---|---|
|---|---|---|---|---|
|---|-1-|---|---|---|
|---|---|---|---|---|
|---|---|---|---|---|

C
o
o
o
o
x
x

E
B
G
D
A
E

|---|---|---|---|---|
|-1-|---|---|---|---|
|---|---|---|---|---|
|---|-2-|---|---|---|
|---|---|-3-|---|---|
|---|---|---|---|---|

o
o
o
o
o
x

Ab
o
o
o
o
o
x

E
B
G
D
A
E

|-X-|---|---|---|---|
|-X-|---|---|---|---|
|-X-|-2-|---|---|---|
|-X-|---|-4-|---|---|
|-X-|---|-3-|---|---|
|-X-|---|---|---|---|

o
o
o
o
o
o

4 fr.

G7
E
B
G
D
A
E

|-1-|---|---|---|---|
|---|---|---|---|---|
|---|---|---|---|---|
|---|---|---|---|---|
|---|-2-|---|---|---|
|---|---|-3-|---|---|

F7
o
o
o
o
o
o

E
B
G
D
A
E

|-X-|---|---|---|---|
|-X-|---|---|---|---|
|-X-|-2-|---|---|---|
|-X-|---|---|---|---|
|-X-|---|-3-|---|---|
|-X-|---|---|---|---|

Cm
o
o
o
o
o
o

E
B
G
D
A
E

1 fr.

Bb
E
B
G
D
A
E

|-X-|---|---|---|---|
|-X-|---|-4-|---|---|
|-X-|---|-3-|---|---|
|-X-|---|-2-|---|---|
|-X-|---|---|---|---|
|---|---|---|---|---|
1 fr.

E
B
G
D
A
E

o
o
o
o
o
x

3 fr.

G
o
o
o
o
o
x

|-X-|---|---|---|---|
|-X-|-2-|---|---|---|
|-X-|---|-4-|---|---|
|-X-|---|-3-|---|---|
|-X-|---|---|---|---|
|---|---|---|---|---|

|---|---|-3-|---|---|
|---|---|---|---|---|
|---|---|---|---|---|
|---|---|---|---|---|
|---|-1-|---|---|---|
|---|---|-2-|---|---|

A
o
o
o
o
o
o

E
B
G
D
A
E

|---|---|---|---|---|
|---|-3-|---|---|---|
|---|-2-|---|---|---|
|---|-1-|---|---|---|
|---|---|---|---|---|
|---|---|---|---|---|

o
o
o
o
o
x

G7+
E
B
G
D
A
E

|-X-|---|---|---|---|
|-X-|---|---|-4-|---|
|-X-|---|-3-|---|---|
|-X-|---|---|---|---|
|-X-|---|---|---|---|
|---|---|-2-|---|---|

Em
o
o
o
o
o
o

E
B
G
D
A
E

|---|---|---|---|---|
|---|---|---|---|---|
|---|---|---|---|---|
|---|-2-|---|---|---|
|---|-1-|---|---|---|
|---|---|---|---|---|

D
o
o
o
o
o
o

E
B
G
D
A
E

|---|-2-|---|---|---|
|---|---|-3-|---|---|
|---|-1-|---|---|---|
|---|---|---|---|---|
|---|---|---|---|---|
|---|---|---|---|---|

o
o
o
o
x
x

1 fr.

A7
E
B
G
D
A
E

|---|---|---|---|---|
|---|-2-|---|---|---|
|---|---|---|---|---|
|---|-1-|---|---|---|
|---|---|---|---|---|
|---|---|---|---|---|

Dm
o
o
o
o
o
x

E
B
G
D
A
E

|-1-|---|---|---|---|
|---|---|-3-|---|---|
|---|-2-|---|---|---|
|---|---|---|---|---|
|---|---|---|---|---|
|---|---|---|---|---|

Ab
E
B
G
D
A
E

|-X-|---|---|---|---|
|-X-|---|---|---|---|
|-X-|-2-|---|---|---|
|-X-|---|-4-|---|---|
|-X-|---|-3-|---|---|
|-X-|---|---|---|---|

C
o
o
o
o
x
x

o
o
o
o
o
o

E
B
G
D
A
E

|-1-|---|---|---|---|
|---|---|---|---|---|
|---|---|---|---|---|
|---|---|---|---|---|
|---|-2-|---|---|---|
|---|---|-3-|---|---|

|-X-|---|---|---|---|
|-X-|-2-|---|---|---|
|-X-|---|-4-|---|---|
|-X-|---|-3-|---|---|
|-X-|---|---|---|---|
|---|---|---|---|---|

o
o
o
o
o
o

Print

Bb
o
o
o
o
o
x

E
B
G
D
A
E

|-X-|---|---|---|---|
|-X-|---|-4-|---|---|
|-X-|---|-3-|---|---|
|-X-|---|-2-|---|---|
|-X-|---|---|---|---|
|---|---|---|---|---|
1 fr.

o
o
o
o
o
x

F7
E
B
G
D
A
E

|-X-|---|---|---|---|
|-X-|---|---|---|---|
|-X-|-2-|---|---|---|
|-X-|---|---|---|---|
|-X-|---|-3-|---|---|
|-X-|---|---|---|---|
1 fr.

Cm

3 fr.

|---|---|---|---|---|
|-1-|---|---|---|---|
|---|---|---|---|---|
|---|-2-|---|---|---|
|---|---|-3-|---|---|
|---|---|---|---|---|

G7

4 fr.

E
B
G
D
A
E

E
B
G
D
A
E

o
o
o
o
o
x

o
o
o
o
o
o