Sei sulla pagina 1di 5

Passione Chords by Neffa

+ --------------------------------------------------------------------- +
| Ultimate Guitar Tabs Archive - your #1 source for tabs!
|
| http://www.ultimate-guitar.com/
|
|
|
| Over 300,000 guitar, guitar pro and bass tabs! Also lessons, news, |
| columns and guitar forums!
|
+ --------------------------------------------------------------------- +
Artist: Neffa
Song: Passione
Passione - Neffa
INTRO: Fm
Fm C
Dammi passione
anche se il mondo
Fm
non ci vuole bene
A#m
anche se siamo
Fm
stretti da catene
G
E carne
C
da crocifissione
Fm
C
presto noi sogneremo
distesi al sole
Fm
di mille primavere
A#m
senza il ricordo
Fm
di questa prigione
G

di un tempo
C
lontano ormai
F
Am Gm
C
Abbracciami e non lasciarmi qui
F
lontano da te
Am Gm
C
abbracciami e fammi illudere
Dm
che importa se questo il momento
in cui tutto comincia e finisce
A#m
giuriamo per sempre per
Fm
C
Fm
Siamo in un soffio di vento che gi se ne va
F
C
C'erano le parole
c'erano stelle
Fm
che ho smesso di contare
A#m
perso nei giorni
Fm
senza una ragione
G
nei viaggi
C
senza ritornare
Fm C
ora tu non spiegare
tanto lo sento
Fm
dove pu il dolore
A#m
quando la notte
Fm
grider il mio nome

G
nessuno
C
ricorder
F
Am Gm C
Abbracciami e non lasciarmi qui
F
lontano da te
Am Gm
C
abbracciami e fammi illudere
Dm
che importa se questo il momento
in cui tutto comincia e finisce
A#m
giuriamo per sempre per
Fm
C
Fm
Siamo in un soffio di vento che gi se ne va
Fm
C
Fm
Siamo in un soffio di vento che gi se ne va
END
+--------------------------------------------------------------------------+
| This file is the author's own work and represents their interpretation |
| of the song. You may only use this file for private study, scholarship, |
| or research.
|
+--------------------------------------------------------------------------+
Ultimate-Guitar.Com 2013
Show/hide chords diagrams

Add more chord diagrams to the list:


DmGmAmFEGA#mCFm

Dmx
E |-1-|---|---|---|---| o

B |---|---|-3-|---|---| o
G |---|-2-|---|---|---| o
D |---|---|---|---|---| o
A |---|---|---|---|---| x
E |---|---|---|---|---| x
variations
Gmx
E |---|---|-X-|---|---| o
B |---|---|-X-|---|---| o
G |---|---|---|---|---| o
D |---|---|---|---|---| o
A |-1-|---|---|---|---| o
E |---|---|-4-|---|---| o
variations
Amx
E |---|---|---|---|---| o
B |-1-|---|---|---|---| o
G |---|-3-|---|---|---| o
D |---|-2-|---|---|---| o
A |---|---|---|---|---| o
E |---|---|---|---|---| x
variations
Fx
E |-X-|---|---|---|---| o
B |-X-|---|---|---|---| o
G |-X-|-2-|---|---|---| o
D |-X-|---|-4-|---|---| o
A |-X-|---|-3-|---|---| o
E |-X-|---|---|---|---| o
1 fr.
variations
Ex
E |---|---|---|---|---| o
B |---|---|---|---|---| o
G |-1-|---|---|---|---| o
D |---|-3-|---|---|---| o
A |---|-2-|---|---|---| o
E |---|---|---|---|---| o
variations
Gx

E |---|---|-3-|---|---| o
B |---|---|---|---|---| o
G |---|---|---|---|---| o
D |---|---|---|---|---| o
A |---|-1-|---|---|---| o
E |---|---|-2-|---|---| o
variations
A#mx
E |-X-|---|---|---|---| o
B |-X-|-2-|---|---|---| o
G |-X-|---|-4-|---|---| o
D |-X-|---|-3-|---|---| o
A |-X-|---|---|---|---| o
E |---|---|---|---|---| x
1 fr.
variations
Cx
E |---|---|---|---|---| o
B |-1-|---|---|---|---| o
G |---|---|---|---|---| o
D |---|-2-|---|---|---| o
A |---|---|-3-|---|---| o
E |---|---|---|---|---| x
variations
Fmx
E |-X-|---|---|---|---| o
B |-X-|---|---|---|---| o
G |-X-|---|---|---|---| o
D |-X-|---|-4-|---|---| o
A |-X-|---|-3-|---|---| o
E |-X-|---|---|---|---| o
1 fr.
variations