Sei sulla pagina 1di 3

a Massimo...

:-(
_____________________________________________________________
IL POSTINO (Luis Enriquez Bacalov)
edit by QUIQUO (Marco) / http://quiquo.altervista.org
(su Quiquo tutte le diteggiature degli accordi, la lavagna di Archimede per
cambiare la tonalit�, separare il testo dagli accordi e scegliere il layout
di stampa)

LINK da non perdere:


Bacalov e le musiche da film: http://www.epdlp.com/compbso.php?id=424
per ricordare Massimo Troisi: http://www.noncirestachericordarti.too.it/

******(metti il capo al 2� tasto)*******

(sotto le TAB i consigli per agevolare le diteggiature della mano sinistra)


P=pollice I=indice M=medio A=anulare m=mignolo

scarica il midi della TAB: http://quiquotab.altervista.org/ilpostinotab.zip

_______________1� VERSO__________________
SOL
e------------------------------------------------------
B--0----3---0--------3---------------------------------
G-------------------0--------------2--0---/4--4--------
D------------------0------------0----------------------
A------------------------------------------------------
E-----------------3------------------------------------
m A m M M M

RE/FA#
e------------------------------------------------------
B------5------------3----------------------------------
G--4-------4-------2---------------2------2------------
D-----------------0-------------0------0---------------
A------------------------------------------------------
E----------------2-------------------------------------
M m M P Mm M M

DOadd9 DO SOL
e-------0--------------------------3-----------------------------
B---3------3-------3---1---1--0h1-----1-----0--------------------
G-----------------0------------------------0----------------2-4--
D----------------2------------------------0-------0--2h4 /5------
A----------------------------------------------------------------
E----------------0------------------------3----------------------
m m M m I I I m I A I m m I m

RE7add13 RE SOLadd9 SOL


e----------------------------------------------
B------------------------------3---------------
G--4--5--4----4---2----4p2-1-2---------2---0---
D------------4-------------------4----0--------
A-----------3------------------------0---------
E------------------------------------3---------
m m m MAm I m I I I M A A M

MIm7 LA7 RE
e----------------------3----2--3----5-----2---------
B------------------3---3------------5-----------3---
G------2--0------4-----0------------0----------2----
D--4---------4/5------------------------------0-----
A-----------------------------------0---------------
E----------------------0----------------------------
m I m m M I I I I I I IA

e----------------------------------------
B----------------------------------------
G----------------------------------------
D---0---------------------------------0--
A------------4--3--2--0------------------
E------------------------3---2---0-------
A M I M I

____________2� VERSO_______________________

SOL
e-----------------------------------
B--0----3---0--------0--h--3---3----
G-------------------0---------------
D------------------0----------------
A-----------------------------------
E-----------------3-----------------
m A m m

RE/FA#
e-------0--------------------------
B--0--------0--------3-------------
G-------------------2--------------
D------------------0---------------
A----------------------------------
E-----------------2----------------
P Mm

SOL6/FA DO
e------0-------------0------------------3-------------
B--3-------3--------3-------3---1---0-------0------1--
G------------------0------------------------------0---
D------------------------------------------------2----
A-----------------------------------------------3-----
E-----------------1-----------------------------------
m m P m m I m AM I

SOL
e--------------------------------------
B--1---3---1-------0-------0-----0-----
G-----------------0--------------------
D----------------0-----0------0--------
A--------------------------------------
E---------------3----------------------
I m I A

RE
e---------------------------------------------------------
B--0---1---0----------------------------------------------
G----------------2-------2-------2-------------2---0------
D---------------0----0-------0---------2---4-----------4--
A--------------0------------------------------------------
E---------------------------------------------------------
I I I I M m I m

SOL
e-----------------------------------3----
B---------------------1--0---------0-----
G--0------------2--0--------------0------
D---------2--0-------------------0-------
A-------------------------------2--------
E------3-----------------------3---------
A M M I AM m

Interessi correlati