Sei sulla pagina 1di 2

Matteo Carcassi - Guitar Method - Op 59 Part 3 No 18 - Andante in Em

~~~~~~~~~~~~~~~~~~~~~~~~~~~~~~~~~~~~~~~~~~~~~~~~~~~~~~~~~~~~~~~~
renamed, measures 6 & 8 corrected - Norbert Neunzling - May 2012
contact@norbert-neunzling.de - http://www.norbert-neunzling.de
~~~~~~~~~~~~~~~~~~~~~~~~~~~~~~~~~~~~~~~~~~~~~~~~~~~~~~~~~~~~~~~~

(legend below the tab)

Key - Em Time - 4/4 Tempo - Andante (at a moderate pace)

|--3--| |--3--| |--3--| |--3--|


0 E E E E E E E E E E E E E E
E||-----0--|-----------3-----------------2--------|
B||--0-----|--------0--------0--------0--------0--|
G||--------|-----0--------0--------2--------2-----|
D||--------|--2-----------------1-----------------|
A||--------|--------------------------------------|
E||--------|--------------------------------------|

|--3--| |--3--| |--3--| |--3--| |--3--| |--3--|


2 E E E E E E Q E E E E E E E E E E E E E E
|-----------0-------------------|-----------2-----------------3--------|
|--------0--------0-------0--0--|--------0--------0--------0--------0--|
|-----0--------0----------------|-----2--------2--------0--------0-----|
|--2----------------------------|--1-----------------2-----------------|
|-------------------------------|--------------------------------------|
|--------------------0----------|--------------------------------------|

|--3--| |--3--| |--3--| |--3--| |--3--| |--3--|


4 E E E E E E Q E E E E E E E E E E E E E E
|-----------2----------------0--|-----------3-----------------3--------|
|--------4--------4-------0-----|--------0--------0--------2--------2--|
|-----4--------4----------------|-----0--------0--------0--------0-----|
|-------------------------------|--2-----------------1-----------------|
|--2-----------------2----------|--------------------------------------|
|-------------------------------|--------------------------------------|

|--3--| |--3--| |--3--| |--3--| |--3--| |--3--| |--3--| |--3--|


6 E E E E E E E E E E E E E E E E E E E E E E E E
|-----------2-----------------3--------|-----------3-----------------2--------|
|--------1--------1--------0--------0--|--------1--------1--------1--------1--|
|-----2--------2--------0--------0-----|-----2--------2--------2--------2-----|
|--0-----------------2-----------------|--------------------0-----------------|
|--------------------------------------|--3-----------------------------------|
|--------------------------------------|--------------------------------------|

|--3--| |--3--|
8 E E E E E E Q Q E E
|-----------3------------------||---------|
|--------0--------0------------||---0--0--|
|-----0--------0---------------||*--------|
|------------------------------||*--------|
|------------------------------||---------|
|--3-----------------3---------||---------|

|--3--| |--3--| |--3--| |--3--| |--3--| |--3--|


9 E E E E E E E E E E E E E E E E E E Q E E
|-----------2-----------------2--------|-----------3-------------0-----|
|--------0--------0--------0--------0--|--------0--------0----------3--|
|-----2--------2--------2--------2-----|-----0--------0----------------|
|--1-----------------------------------|--2----------------------------|
|--------------------2-----------------|-------------------------------|
|--------------------------------------|--------------------0----------|

|--3--| |--3--| |--3--| |--3--|


11 E E E E E E E E E E E E Q E E E E E E
|--------------------------------------|-------------------0--2--|
|-----------1-----------------2--------|--0-------0--2--4--------|
|--------2--------2--------0--------0--|-------3-----------------|
|-----2--------2--------2--------2-----|--1----------------------|
|--0-----------------1-----------------|--2----------------------|
|--------------------------------------|-------------------------|

|--3--| |--3--| |--3--| |--3--| |--3--| |--3--| |--3--| |--3--|


13 E E E E E E E E E E E E E E E E E E E E E E E E
|-----------3-----------------1--------|-----------0-----------------2--------|
|--------0--------0--------0--------0--|--------1--------1--------1--------1--|
|-----0--------0--------1--------1-----|-----2--------2--------2--------2-----|
|--2-----------------0-----------------|--------------------------------------|
|--------------------------------------|--3-----------------0-----------------|
|--------------------------------------|--------------------------------------|

|--3--| |--3--| |--3--| |--3--| |--3--| |--3--|


15 E E E E E E E E E E E E E E E E E E Q
|-----------3-----------------2--------|-----------0--------------||
|--------0--------0--------0--------0--|--------0--------0--------||
|-----0--------0--------2--------2-----|-----0--------0----------*||
|--------------------1-----------------|--2----------------------*||
|--2-----------------------------------|--------------------------||
|--------------------------------------|--------------------0-----||

Legend
------

Q - quarter note
E - 8th note

|-3-| - triplets (in groups of 3 - 3 notes played in the time of 2)

||-- --||
||-- --||
||*- repeat -*||
||*- section -*||
||-- --||
||-- --||