Sei sulla pagina 1di 4

Ruperto Chapi (1851-1909) - Serenata Morisca (from Fantasia Morisca)

Transcribed by Francisco Tarrega


Tabbed from original Tarrega's sheet music: Grzegorz Konieczny

Video: http://www.youtube.com/watch?v=6mTPW431DWo - Fernando Espi

Order of play - measures 1-43, 11-52

Tuning: DGDGBE Time: 4/4 Suggested tempo: 92 bpm

p - pulloff
h - hammeron
s - slide
==== - sustain
P - pause

1
E--------6-------------10s11-8-10----8----|----------5-----3-----------------|
B------8---10-8-7-10-8------------11---10-|-11s8-6-8---6s4---6-3---4s3-------|
G----7------------------------------------|----------------------5-----3s2-5-|
D-----------------------------------------|----------------------------------|
G-----------------------------------------|----------------------------------|
D-----------------------------------------|----------------------------------|

3
-----------------------------------|----------------------------------|
-----------------------------------|-----------------3-3h4p3----------|
--3=====---------------------------|-0-------0-2-3-5-2-------2---3----|
----5-4-5s7-5-4-5s6=====-----------|---0-2-4---------4-------4---4----|
--------------------8-5-8---8-5----|----------------------------------|
--------------------------6=====6--|-0=====----------0======-0---0----|

5
------------------------------0-2--|-3==---------0-----------8-10-11-12-14s
--------------------------3-4------|---------3-4---7s8-10-11--------------|
--0=====----------0-2-3-5----------|-0-2-3-5---------0=======-------------|
----------0-1-2-4---------0=====---|---------0=====------------0=======---|
--0-2-3-5--------------------------|--------------------------------------|
-----------------------------------|--------------------------------------|

7 1/2III
-s15------3-----------------------||----------------------------------|
----------3-----------------------||--------------------3-3-3-----3---|
--0-------3--------P------P-------||-0------3------s2-----------------|
-------------------P------P-------||------------------------------0---|
----------0-----------------------||-0------3------s2-----------------|
----------------------------------||--------------------------0======-|

9 II........
-----------------------------------|----------------------------------||
------3-------3-----3-3-3-----3----|-----3-------3------3-------------||
--0======-3======s2======----------|-----3-------3--------2-----------||
------------------------------0----|------------------------4-----0---||
--0======-3======s2======----------|-0======-3======-2=======---------||
--------------------------0======--|--------------------------0-------||

11 % VII............ 1/2VII...........
-----10=====-6---6---8======-10=====--|-6======-----8---10=====----------|
-------------------------7-------7----|---------------------7-------7----|
---------7-------7-------7-------7----|-----7-------7-------7-------7----|
-------------8======-7======----------|---------8======------------------|
-----0======-----------------7======--|-0======---------7======----------|
--------------------------------------|-------------------------0======--|

13 1/2VII........... 1/2VII....
---------------------------10=====-|-10===============-9-8-------------|
--8==========-10---7======-----7---|-----------------------10-7--------|
------7-------7--------7-------7---|-----7-------7--------------7------|
------8---8=======-7======---------|---------8-------7=======-----10-7-|
--0======--------------------------|-0======---------------------------|
---------------------------0======-|--------------------------0=======-|

15 1/2VII..........
--10=====-6---6---8======-10======-|-6---------------------------------|
----------------------7--------7---|-------------8---9-------s11---13--|
------7-------7-------7--------7---|-----7-------7---8-----------------|
----------8======-7======----------|---------8-------10----------------|
--0======--------------------------|-0---------------------------------|
--------------------------0=======-|-----------------------------------|

17 1/2III............................................
----3-------6==============-5--------|-3==========-3---2==========-10---|
----3---3==================-3--------|---3---3-----------1---1----------|
----3-----------------------5--------|-----4---------------2------------|
----0======-0======---------0--------|---------0======---------0=======-|
-------------------------------------|-0======---------0===============-|
--------------------0======----------|----------------------------------|

19 { 1/16'} VI 1/2III..
--10=========-3---2--3s2-0-2-2s11---11===-10-|s3------6-------------3------|
----0---0---------1--------------------------|--------6------4------4------|
------0--------------------------------------|-0-------------0------3------|
----------0======-0==================0-------|--------6------1-------------|
--0==============-0==================--------|--------7-------------6------|
---------------------------------------------|-----------------------------|

21 1/2III
--------------------------------------|----------------------------------|
-----3--------------------------------|-3--------------------------------|
-----3---0-2-3-4-5-6-7-------0-2-4-0--|---------5------s3-------2--------|
-----0======-----------0-2-4----------|-0--------------------------------|
--------------------------------------|---------5------s3-------2--------|
--------------------------------------|----------------------------------|

23 II.............. II................
-----------------------------------|----------------------------------||
------3-------3-----3---------3----|-----3-------3------3---------3---||
------3-------3-------2-------2----|-----3-------3--------2-------2---||
------------------------4-----4----|------------------------4-----4---||
--0======-3======s2======----------|-0======-3======s2=======---------||
--------------------------0======--|--------------------------0=======||

25
--------10--------10----10---------|-10----10--------10----10---------|
-s8---------------7---7---7======--|-0---------------7---7---7======--|
-s7---7---7======------------------|-9---9---9======------------------|
-s9-9---------0---0-0---------0----|---0---------0---0-0---------0----|
--0==========-----0==========------|-0==========-----0==========------|
-----------------------------------|----------------------------------|

27 1/2VII...........
--------------------------------10----|s0==========-0-----0---0---------|
--8========-10-8-10-7-8-7-8-7---------|-----3---3======-3---3---3-------|
------7---9---------7-----------------|---4---4---------5---------2-4-5-|
----9---9-----------------------------|---------------------------------|
--0================-0===============--|-0==============-----------------|
--------------------------------------|-----------------0==============-|

29 1/2VII....
-----------------------------------|------------------------------10--|
-----------------------------------|-------0---10-8-10-7-8-7-8-7------|
--4-4-4-4-4---0---2-2-2-2-2--------|-----0---7---------7--------------|
----------0======-------------0----|---0------------------------------|
--0==============------------------|-0================-0=============-|
------------------0==============--|----------------------------------|

31
-s0==========-0-----0---0----------|----------------------------------|
------3---3======-3---3---3--------|-----------------------------3----|
----4---4---------5---------2-4-5--|-4-4-4-4-4---0---2-2-2-2-2--------|
-----------------------------------|---------0======------------------|
--0==============------------------|-0==============------------------|
------------------0==============--|-----------------0==============--|

33 III............. III..........................................
----------------6---5-6-5-6-5-6-3-5--|-------------3--------------------|
----3======-6---3--------------------|-6-----------4---4-----------6----|
--------3----------------------------|-----------------5----------------|
--------3----------------------------|-----3-3-3-----------3-3-3--------|
----3======-3======-5======----------|-3======--------------------------|
----------------------------3======--|-----------------3==============--|

35 III..............II.....
-------------------------------------|----------------------------------|
----3======---------3======----------|-----------------------------2----|
--------3---3---5-------2---2---5----|-4---0-4s12---12======s4-----3----|
--------3---------------4------------|----------------------------------|
----3======-3======-2======----------|-0======================----------|
----------------------------0======--|-------------------------1======--|

37
----2-5-----3---3s2-5s10----8-5----|-3-5-6-3-5---3--------------10-10-|
--3-----------4-----------------7--|-----------6---4------------------|
-----------------------------------|---------------------7-7---7------|
------------------0======-0======--|-------------------0-----0=======-|
----------5======------------------|-0==============------------------|
--0======--------------------------|-----------------0======----------|

39
-----------------------------------|-----------------------------10---|
--------------4-------3-----1------|---------------------3------------|
------------0---0---2---------2----|-0-2-3-0-2---0-------------7----7-|
--0-4-7-----------4-------------4--|-----------3---1---0---0-0=======-|
----------5======------------------|-0==============------------------|
--0======---------0======-0======--|-----------------0======----------|
41 1/2VII....
------10------10--10---10-----10--10--|----10------11------12-------14---|
--------------------------------------|----------------------------------|
-----7--------7---7---7-------7---7---|---7---7---8---8---9---9---11--11-|
--10-----0-10==-0==-9-----0-9==-0==---|-7-------0======---------0=======-|
--------------------------------------|----------------------------------|
--0=====------------0====-------------|-0======---------0======----------|

43 II....... II................ @
--15-------------------------------|----------------------------------||
--------------3-----3---------3----|-----3-------3------3---------3---||
--12----------3-------2-------5----|----s3-------3--------2-------5---||
------0-----------------4----------|------------------------4---------||
--0======-3======-2======----------|-0======-3======s2=======---------||
--------------------------0======--|--------------------------0=======||

45 Dal % al @
---------3-----3---3---3-------3---3--|---3---3---3----------------------|
-------------4==-3==-1==-3-4-3==-1==--|---------3==-------3-------3---3--|
-------0---0--------------------------|-3==---------0h3-2==s3-5-3==s2==--|
--------------------------------------|-----0==--------------------------|
-----0======--------------------------|----------------------------------|
--------------------------------------|----------------------------------|

47
----3------------------------------|----------------------------------|
-----------------------------------|----------------------------------|
--0==---0---0---0---0-------0---0--|---0---0---0----------------------|
-----------------------------------|---------0==-------0-------0---0--|
------0==-8==-7==-5==-7-8-7==s5==--|-3==---------0h3-2==-3-5-3==-2==--|
-----------------------------------|-----0==--------------------------|

49 1/2III.....................................................
----------3---------------3--------|---------3---------------3--------|
----------4---4---3-------4---4----|-3-------4---4---3-------4---4----|
------0-0-5---5---3-------5---5----|-3-------5---5---3-------5---5----|
----------------------5-5----------|-----5-5-------------5-5----------|
--0======-0---0---0======-0---0----|-0======-0---0---0======-0---0----|
-----------------------------------|----------------------------------|

51 1/2III..
-----------------------------------|---------3------------------------||
-----------------------------------|---------3------------------------||
--0-----0---2--s3--s5--s7--s9--s11-|s12------3-------P----------------||
-----------------------------------|---------5-------P----------------||
--0==-0==-2==s3==s5==s7==s9==s11==-|s12------0------------------------||
-----------------------------------|----------------------------------||