Sei sulla pagina 1di 5

#----------------------------------PLEASE NOTE---------------------------------#

#This file is the author's own work and represents their interpretation of the #
#song. You may only use this file for private study, scholarship, or research. #
#------------------------------------------------------------------------------#

VERMILION PART 2
As recorded by Slipknot

Transcribed by Joe Moreg


Arranged by www.youtube.com/joemoreg

G#5 B5 A G5
466xxx x244xx x07650 355xxx
F#5 D5 A5 A/C#
244xxx x0023x 577xxx 977xxx
B5VII B5/Bb E5
799xxx 699xxx x799xx

Gtr I (E A D G B E) - 'Untitled'
Intro, Verses & Outro
G#5
3/4 2/4
E E E E E E E E E E E E E E E E
| | | | | | | | | | | | | | | |
/ / / / / / / / / / / / / / / /

Gtr I
E E E E E E E E E E E E E E E E
||----------------|-------------|---------|
||o---------------|-------------|---------|
||----------------|-------------|---------|
||--6-6-6-8-(8)-8-|-------------|---------|
||o-6-6-6-6--6--6-|-7-7-7-6-6-6-|-6-7-6-6-|
||--4-4-4-4--4--4-|-4-4-4-4-4-4-|-4-4-4-4-|

1.,2.,3. 4.
B5VII B5/Bb B5VII
4/4
E E E E E E E E E E E E E E E E E E E E E E E E
| | | | | | | | | | | | | | | | | | | | | | | |
/ / / / / / / / / / / / / / / / / / / / / / / /

E E E E E E E E E E E E E E E E 4x E E E E E E E E
|-----------------|------------------||-----------------||
|-----------------|-----------------o||-----------------||
|-----------------|------------------||-----------------||
|-9-9-9-9-9-9-9-9-|-9-9-9-9-9-9-9-9--||-9-9-9-9-9-9-9-9-||
|-9-9-9-9-9-9-9-9-|-9-9-9-9-9-9-9-9-o||-9-9-9-9-9-9-9-9-||
|-7-7-7-7-7-7-7-7-|-7-6-6-6-6-6-6-6--||-7-7-7-7-7-7-7-7-||

Bridge
A
3/4
E E E E E E E E E E E E E E E E E E E E E E E E
| | | | | | | | | | | | | | | | | | | | | | | |
/ / / / / / / / / / / / / / / / / / / / / / / /

E E E E E E E E E E E E E E E E E E E E E E E E
|-0-0-0-0-0-0-|-0-0-0-0-0-0-|-0-0-0-0-0-0-|-0-0-0-0-0-0-|
|-5-5-5-5-5-5-|-5-5-5-5-5-5-|-5-5-5-5-5-5-|-5-5-5-5-5-5-|
|-6-6-6-6-6-6-|-6-6-6-6-6-6-|-6-6-6-6-6-6-|-6-6-6-6-6-6-|
|-7-7-7-7-7-7-|-7-7-7-7-7-7-|-7-7-7-7-7-7-|-7-7-7-7-7-7-|
|-0-0-0-0-0-0-|-0-0-0-0-0-0-|-0-0-0-0-0-0-|-0-0-0-0-0-0-|
|-x-x-x-x-x-x-|-x-x-x-x-x-x-|-x-x-x-x-x-x-|-x-x-x-x-x-x-|

B5VII
2/4
E E E E E E E E E E E E E E E E
| | | | | | | | | | | | | | | |
/ / / / / / / / / / / / / / / /

E E E E E E E E E E E E E E E E
||--------------:-------------:----------||
||o-------------:-------------:---------o||
||--------------:-------------:----------||
||--9-9-9-9-9-9-:-9-9-9-9-9-9-:-9-9-9-9--||
||o-9-9-9-9-9-9-:-9-9-9-9-9-9-:-9-9-9-9-o||
||--7-7-7-7-7-7-:-7-7-7-7-7-7-:-7-7-7-7--||

Chorus
G5 F#5 B5 D5
3/4
E E E E E E E E E E E E E E E E E E E E E E E E
| | | | | | | | | | | | | | | | | | | | | | | |
/ / / / / / / / / / / / / / / / / / / / / / / /

E E E E E E E E E E E E E E E E E E E E E E E E 3x
||--------------|-------------|-------------|--------------||
||o-------------|-------------|-------------|-3-3-3-3-3-3-o||
||--------------|-------------|-4-4-4-4-4-4-|-2-2-2-2-2-2--||
||--5-5-5-5-5-5-|-4-4-4-4-4-4-|-4-4-4-4-4-4-|-0-0-0-0-0-0--||
||o-5-5-5-5-5-5-|-4-4-4-4-4-4-|-2-2-2-2-2-2-|-------------o||
||--3-3-3-3-3-3-|-2-2-2-2-2-2-|-------------|--------------||

G5 F#5
E E E E E E E E E E E E
| | | | | | | | | | | |
/ / / / / / / / / / / /

E E E E E E E E E E E E
|-------------|-------------||
|-------------|-------------||
|-------------|-------------||
|-5-5-5-5-5-5-|-4-4-4-4-4-4-||
|-5-5-5-5-5-5-|-4-4-4-4-4-4-||
|-3-3-3-3-3-3-|-2-2-2-2-2-2-||

Interlude
B5VII G5 A5
E E E E E E E E E E E E E E E E E E E E E E E E
| | | | | | | | | | | | | | | | | | | | | | | |
/ / / / / / / / / / / / / / / / / / / / / / / /

E E E E E E E E E E E E E E E E E E E E E E E E
|-------------|-------------|-------------|-------------|
|-------------|-------------|-------------|-------------|
|-------------|-------------|-------------|-------------|
|-9-9-9-9-9-9-|-9-9-9-9-9-9-|-5-5-5-5-5-5-|-7-7-7-7-7-7-|
|-9-9-9-9-9-9-|-9-9-9-9-9-9-|-5-5-5-5-5-5-|-7-7-7-7-7-7-|
|-7-7-7-7-7-7-|-7-7-7-7-7-7-|-3-3-3-3-3-3-|-5-5-5-5-5-5-|

A/C# B5VIIB5/Bb B5VII


E E E E E E E E E E E E E E E E E E
| | | | | | | | | | | | | | | | | |
/ / / / / / / / / / / / / / / / / /

E E E E E E E E E E E E E E E E E E
|-------------|--------------|--------------||
|-------------|--------------|--------------||
|-------------|--------------|--------------||
|-7-7-7-7-7-7-|-9-9--9-9-9-9-|-9-9-9-9-9-9--||
|-7-7-7-7-7-7-|-9-9--9-9-9-9-|-9-9-9-9-9-9--||
|-9-9-9-9-9-9-|-7-7--6-6-6-6-|-7-7-7-7-7-7--||

Middle-eight
E5 B5VII F#5
E E E E E E E E E E E E E E E E E E E E E E E E
| | | | | | | | | | | | | | | | | | | | | | | |
/ / / / / / / / / / / / / / / / / / / / / / / /

E E E E E E E E E E E E E E E E E E E E E E E E
|-------------|-------------|-------------|--------------|
|-------------|-------------|-------------|--------------|
|-9-9-9-9-9-9-|-------------|-------------|--------------|
|-9-9-9-9-9-9-|-9-9-9-9-9-9-|-9-9-9-9-9-9-|-4-4-4-4-4-4--|
|-7-7-7-7-7-7-|-9-9-9-9-9-9-|-9-9-9-9-9-9-|-4-4-4-4-4-4--|
|-------------|-7-7-7-7-7-7-|-7-7-7-7-7-7-|-2-2-2-2-2-2--|

G5 B5VII F#5 G5
E E E E E E E E E E E E E E E E E E E E E E E E E E E E E E
| | | | | | | | | | | | | | | | | | | | | | | | | | | | | |
/ / / / / / / / / / / / / / / / / / / / / / / / / / / / / /

E E E E E E E E E E E E E E E E E E E E E E E E E E E E E E
|-------------|-------------|-------------|-------------|--------------||
|-------------|-------------|-------------|-------------|--------------||
|-------------|-------------|-------------|-------------|--------------||
|-5-5-5-5-5-5-|-9-9-9-9-9-9-|-9-9-9-9-9-9-|-4-4-4-4-4-4-|-5-5-5-5-5-5--||
|-5-5-5-5-5-5-|-9-9-9-9-9-9-|-9-9-9-9-9-9-|-4-4-4-4-4-4-|-5-5-5-5-5-5--||
|-3-3-3-3-3-3-|-7-7-7-7-7-7-|-7-7-7-7-7-7-|-2-2-2-2-2-2-|-3-3-3-3-3-3--||

Strumming Pattern Options


G#5
Q E E E E E E E E E E E E E E Q
| | | | | | | | | | | | | | | |
/ / / / / / / / / / / / / / / /

Q E E E E 4x E E E E E E 4x E E E E Q 4x
||--------------||-||---------------||-||--------------||
||o------------o||-||o-------------o||-||o------------o||
||--------------||-||---------------||-||--------------||
||--6--6-6-6-6--||-||--6-6-6-6-6-6--||-||--6-6-6-6-6---||
||o-6--6-6-6-6-o||-||o-6-6-6-6-6-6-o||-||o-6-6-6-6-6--o||
||--4--4-4-4-4--||-||--4-4-4-4-4-4--||-||--4-4-4-4-4---||

Duration Legend
---------------
W - whole; H - half; Q - quarter; E - 8th; S - 16th; T - 32nd; X - 64th; a -
acciaccatura
+ - note tied to previous; . - note dotted; .. - note double dotted
Uncapitalized letters represent notes that are staccato (1/2 duration)
Irregular groupings are notated above the duration line
Duration letters will always appear directly above the note/fret number it
represents the
duration for. Duration letters with no fret number below them represent rests.
Multi-
bar rests are notated in the form Wxn, where n is the number of bars to rest for.
Low
melody durations appear below the staff

Tablature Legend
----------------
h - hammer-on
p - pull-off
b - bend
pb - pre-bend
r - bend release (if no number after the r, then release immediately)
/\ - slide into or out of (from/to "nowhere")
s - legato slide
S - shift slide
<n> - natural harmonic
[n] - artificial harmonic
n(n) - tapped harmonic
~ - vibrato
tr - trill
T - tap
TP - trem. picking
PM - palm muting
\n/ - tremolo bar dip; n = amount to dip
\n - tremolo bar down
n/ - tremolo bar up
/n\ - tremolo bar inverted dip
= - hold bend; also acts as connecting device for hammers/pulls
<> - volume swell (louder/softer)
x - on rhythm slash represents muted slash
o - on rhythm slash represents single note slash

Misc Legend
-----------
| - bar
|| - double bar
||o - repeat start
o|| - repeat end
*| - double bar (ending)
: - bar (freetime)
$ - Segno
& - Coda
Tempo markers - <E/E./Q/Q./H/H.> = BPM(8/16=s8/s16), where s8 = swing 8ths, s16 =
swing 16ths

** Generated using Power Tab Editor by Brad Larsen: The Official Power Tab Web Site