Sei sulla pagina 1di 2

Ci ho provato, non mi soddisfa molto, ma si pu� sempre migliorare :)

Correzioni ben accette.


Gli arpeggi e particolari tocchi non sono riuscito ad estrapolarli.
Poi dipende da come la suoni, se in un complesso con basso e tastiera o con
solo chitarra (per diletto). Nel secondo caso � soggettivo, io personalizzo
un arpeggio senza suonare sui tasti alti. Nel primo caso invece segui gli
accordi (dovrebbero essere giusti) e suonali nelle varie posizioni.
Sui Re7+ non suonare il cantino in ogni caso :)

Qualcosa arriver� (Pino Daniele)

INTRO: Re7+
|------------------10---10-|
|-2-3-2---2--------10---10-|
|-2-2-2---2--------7----7--|
|-0----------------x----x--|
|--------------------------|
|--------------------------|
Sol
|-10-10-7-- |-------
|-8--8--8-- |-3-3-0-
|-7--7--7-- |-0-0-0-
|---------- oppure |-------
|---------- |-------
|---------- |-3-----

Re7+
Voglio 'o mare,
Sol Re7+
'e quatto 'a notte miezzo 'o pane
Sol La Sim
e si cadesse 'o munne sano,
Sol
je nun me sposto
La Re Sol (come intro)
e resto 'a sotto a mo' guard�.
Re
Voglio 'o mare,
Sol Re
c� 'e mmura antiche e cchi� carnale
Sol La Sim
a vita 'o ssaje ce p� fa male
Sol La
e per sognare poi qualcosa arriver�.
Re
Tanto nun passa nisciuno
Sim Sol
e nisciuno ce p� guard�
La7
te voglio bene
Re
e ghi� stasera 'o ssaje
Sim Sol
nun tengo genio 'e pazzi�
La
e 'o suonno se ne v�.

Re/Fa# La
|---------2--------|--7^5---3---2-------|
|-2-3--5--------3--|--------------------|
|-2-2--2-----2-----|--7^5---4---2-------|
|------------------|--------------------|
|------------------|--0-----------------|
|-2----------------|--------------------|

Voglio 'o mare


p� chi fa bene e chi f� male
p� chi si cerca e va luntano
e per sognare poi qualcosa arriver�.
Tanto nun passa nisciuno
e nisciuno ce p� guard�
te voglio bene
e ghi� stasera 'o ssaje
nun tengo genio 'e pazzi�
e 'o suonno se ne v�

--

Ciao,
Luca(riello)