Sei sulla pagina 1di 1

Ivan Graziani – Il Chitarrista

Signore è stata una svista abbi un occhio di riguardo per il tuo chitarrista
E7
Riff 1 |-------------3---------------------------|
|-5-5-3---3-----5-3---3-------------------|
|-------4---4-------4---4-2-4-------------|
|-----------------------------2-0---------|
|---------------------------------2-0-----|
|-------------------------------------3-0-|
E7
Signore se lanci uno strale, sbaglia mira per favore non farmi del male
E7
Riff 1
F#
Te lo giuro in ginocchio qui in mezzo alla pista
Te lo giuro sulla Fender io non l'ho fatto apposta
F#
Riff 2 |-------------5---------------------------|
|-7-7-5---5-----7-5---5-------------------|
|-------6---6-------6---6-4-6-------------|
|-----------------------------4-2---------|
|---------------------------------4-2-----|
|-------------------------------------5-2-|
E7 (Stop)
Perciò...
Signore è stata una svista abbi un occhio di riguardo per il tuo chitarrista
E7
Riff 1
Em7
Non so com'è ma è accaduto. Lui è entrato nel bar con lei e si è seduto
Em7 F
Io ero lì affascinato. La sua carica sessuale si spandeva nel locale
Em7 Em7
Ed ioooooo di desiderio stavo male.
Così mi sooooono avvicinato e a giocare a poker l'ho invitato
Em7 F
Avevo un full e lui due coppie. Cosa rilanci se non hai più niente tranne lei...
E7 (Stop)
Se perdo tu l'avrai

Signore è stata una svista abbi un occhio di riguardo per il tuo chitarrista
E7
Riff 1
SOLO
-----------------|---------------------------------|------------------------------2-4-4/7~-|
-----------------|---------------------------------|-------2-3p2--5p3--2---2-2/5-----------|
-----------------|--------------------1-1h2--1-----|--2/4----------------4-----------------|
----0---4b5--2~--|--2p0-------------2----------2~--|---------------------------------------|
--2---2----------|-------4p2--0---2----------------|---------------------------------------|
-----------------|--------------4------------------|---------------------------------------|
-------------------------------------------------------||--/10--10--10--10--10--10-|--------------------||
-------0-2-5~-------0-2-3~-------3h5--7b8--7-5---2-3~--||---/9---9---9---9---9---9-|--------------------||
--2/4----------2/4----------2/4----------------4-------||°--/7---7---7---7---7---7-|-------------------°||
-------------------------------------------------------||°-------------------------|-------------------°|| (3x)
-------------------------------------------------------||--------------------------|-/5--5--5--5--5--5--||
-------------------------------------------------------||--------------------------|--------------------||
-/10--10--10--10--10--10--10--10--10--10--10--10--|-------0-------------------------|
--/9---9---9---9---9---9---9---9---9---9---9---9--|--------3------------------------|
--/7---7---7---7---7---7---7---7---7---7---7---7--|--2/4-------4\2--0-2p0----0------|
--------------------------------------------------|------------------------2---2p0--|
--------------------------------------------------|---------------------------------|
--------------------------------------------------|---------------------------------|
-------------------------------------------------|--0----0-0-0-|----12-------|
-------------------------------------------------|--2----2-1-2-|----15(18)~--|
-------------------------------------------------|--0----0-0-0-|-------------|
--2p0----0---------------------------------------|--2----2-1-2-|-------------|
-------2---2p0--2p0----0h2----------------4b5--0-|--0----0-0-0-|-------------|
---------------------3------0-0-2-3-5-3-5--------|-------------|-------------|
E7 (Stop)
ti giuro
Signore è stata una svista abbi un occhio di riguardo per il tuo chitarrista
Em7
e le sue corde hanno vibrato. in una notte io quel sogno l'ho bruciato. Mentre dormiva son scappato
F
Con le gambe intorpidite le scarpe ancora slacciate.
Con le gambe intorpidite le scarpe ancora slacciate.
E7 (Stop)
e... con il mio mazzo di carte truccate!
E7
Riff 1 (2x)