Sei sulla pagina 1di 10

Mymp - Kailan tab

Song Title: Kailan


Artist: MYMP
Tab by: Keno Ventolero

Guitar 1 - Standard Tuning (Capo on 1st fret)


Guitar 2 - Standard Tuning (Capo on 1st fret) [See Adlib]
==========
[INTRO]:
==========

BbM7 C/Bb
E E E E E E E E E E E E E E E E
E||--1----------1--------------|--0----------0--------------|
B||----------3--------3--------|----------1--------1--------|
G||-------2--------2-----x-----|-------0--------0-----x-----|
D||----------------------x-----|----------------------x-----|
A||--1-------------------x--1--|--1-------------------x--1--|
E||----------------------------|----------------------------|

Am7 Dm7 C
E E E E E E E E E E E E E E E E
--0---------0--------------|---------1-----------0-----|
---------1--------1--------|---------1-----------1-----|
------0--------0-----x-----|------2-----------0--------|
---------------------x-----|--0------------------------|
--0------------------x--0--|------------0--3--------0--|
---------------------------|---------------------------|

BbM7 Em
E E E E E E E E E E E E E E E E
-------------1--------------|-----------0--------------|
----------3--------3--------|-----------------0--------|
-------2--------2-----x-----|--------0-----0-----x-----|
----------------------x-----|-----2--------------x-----|
--1-------------------x--0--|--------------------x-----|
----------------------------|--0--------------------0--|

Asus7 A7 C5
E E E E E E E E E E E E E E E E
--------------0--------------|-----------0--------------|
--3--------3--------3--------|--2-----2--------0--------|
-----------------0--------0--|-----0--------0--------x--|
--------2--------------2-----|--------------------5--x--|
--0--------------------------|--0-----------------3--x--|
-----------------------------|--------------------------|
==========
[VERSE 1]:
==========

F Bbm/F
E E E E E E E E E E E E E E E E
|------------------1--------|--------------------1--------|
|------------1--------------|--------------2--------------|
|*--------2-----2-----x-----|-----------3-----3-----x-----|
|*-----3--------------x-----|--------3--------------x-----|
|---------------------x-----|-----------------------x-----|
|---1--------------------1--|--1-----------------------1--|

BbM7/F F
E E E E E E E E E E E E E E E E
---------------------1--------|-----------------1--------|
---------------3--------------|-----------1--------------|
------------2-----2-----x-----|--------2-----2-----x-----|
---------3--------------x-----|-----3--------------x-----|
------------------------x-----|--------------------x--0--|
--1------------------------1--|--1-----------------------|

Dm7 C F
E E E E E E E E E E E E E E E E
------------1-----------1--|--------0-----------------|
---------1--------1--------|--------1-----------1-----|
------2--------2-----2-----|-----0--------------2-----|
--0------------------------|-----------------3-----3--|
---------------------------|--3-----------------------|
---------------------------|-----------0--1-----------|

BbM7 BbM7
E E E E E E E E E E E E E E E E
-------------1--------------|-------------1--------------|
----------3--------3--------|----------3--------3--------|
-------2--------2-----x-----|-------2--------2-----x-----|
----------------------x-----|----------------------x-----|
--1-------------------x-----|--1-------------------x-----|
-------------------------1--|-------------------------0--|

==========
[REFRAIN]:
==========

Gm D/G
E E E E E E E E E E E E E E E E
--------------------------|---------------------------|
-----------3--------------|------------3--------------|
--------3--------3--x-----|---------2--------2--x-----|
-----5--------5-----x-----|------4--------4-----x-----|
--------------------x-----|---------------------x-----|
--3--------------------0--|--3---------------------0--|
Gm D/G
E E E E E E E E E E E E E E E E
--------------------------|---------------------------|
-----------3--------------|------------3--------------|
--------3--------3--x-----|---------2--------2--x-----|
-----5--------5-----x-----|------4--------4-----x-----|
--------------------x-----|---------------------x-----|
--3--------------------0--|--3---------------------3--|

Csus2 Csus2
^ ^
E E E E E E E E E E E E E E E E
--3-----------------3--------|--3-----------------3--------|
--3-----------3--------3-----|--3-----------3--------3-----|
--5--------5-----5--------5--|--5--------5-----5--------5--|
--5-----5--------------------|--5-----5--------------------|
--3--------------------------|--3--------------------------|
-----------------------------|-----------------------------|

F F
E E E E E E E E E E E E E E E E
-----------------1--------|-----------------1--------|
-----------1--------------|-----------1--------------|
--------2-----2-----x-----|--------2-----2-----x-----|
-----3--------------x-----|-----3--------------x-----|
--------------------x-----|--------------------x-----|
--1--------------------1--|--1--------------------1--|

=============
[PRE CHORUS]:
=============

BbM7 C/Bb
E E E E E E E E E E E E E E E E
--1----------1--------------|--0----------0--------------|
----------3--------3--------|----------1--------1--------|
-------2--------2-----x-----|-------0--------0-----x-----|
----------------------x-----|----------------------x-----|
--1-------------------x--1--|--1-------------------x--1--|
----------------------------|----------------------------|

Am7 Dm7 C
E E E E E E E E E E E E E E E E
--0---------0--------------|---------1-----------0-----|
---------1--------1--------|---------1-----------1-----|
------0--------0-----x-----|------2-----------0--------|
---------------------x-----|--0------------------------|
--0------------------x--0--|------------0--3--------0--|
---------------------------|---------------------------|
BbM7 Em
E E E E E E E E E E E E E E E E
-------------1--------------|-----------0--------------|
----------3--------3--------|-----------------0--------|
-------2--------2-----x-----|--------0-----0-----x-----|
----------------------x-----|-----2--------------x-----|
--1-------------------x--0--|--------------------x-----|
----------------------------|--0--------------------0--|

Asus7 A7 -------------------[1] A7 -----------[2]


E E E E E E E E E E E E E E E E W
--------------0--------------|-----------0---------------||-------------------|
--3--------3--------3--------|--2-----2--------0---------||--2----------------|
-----------------0--------0--|-----0--------0--------x--*||-------------------|
--------2--------------2-----|--------------------5--x--*||-------------------|
--0--------------------------|--0-----------------3--x---||--0----------------|
-----------------------------|---------------------------||-------------------|

(during first time, do riff ---[1])


(for the second time, do ---[2])

==========
[CHORUS]:
==========

Dm7 Gm
E E E E E E E E E E E E E E E E
------------1--------------|-----------3--------------|
---------1--------1--------|--------3--------3--------|
------2--------2-----------|-----3--------3-----x-----|
--0------------------------|--------------------x-----|
---------------------------|--------------------x--0--|
---------------------0--1--|--3-----------------------|

Csus2 F
E E E E E E E E E E E E E E E E
--------------3--------------|-----------1--------------|
-----------3--------3--------|-----------------1--------|
--------5--------5-----x-----|--------2-----2-----x-----|
-----------------------x-----|-----3--------------x-----|
--3--------------------x-----|--------------------x--0--|
--------------------------0--|--1-----------------------|

BbM7 C/Bb Am7 Dm7 Gm


Q E E Q E E Q E E E E E E
--1----------0-------0---|--L----1------------------|
--3----------1-------1---|--L----1------------3-----|
--2----x-----0----x--0---|--L----2---x--------3-----|
-------x----------x------|-------0---x-----5--------|
--1----x--1--1----x--0---|--L--------x--------------|
-------------------------|--------------3--------1--|
Em Asus7 A7
E E E E E E E E E E E E E E E E E E E E
--------0--------------------|--0--------------------0--|--------------|
--------0-----------------3--|-----3-----3--2-----2-----|-----2--------|
--------0--------------0-----|--------0--------0--------|--0-----x-----|
-----2--------------2--------|--------------------------|--------x-----|
--------------0--------------|--------------0-----------|--------x--0--|
--0--------0-----------------|--------------------------|--------------|

Dm7 Gm
E E E E E E E E E E E E E E E E
------------1--------------|-----------3--------------|
---------1--------1--------|--------3--------3--------|
------2--------2-----------|-----3--------3-----x-----|
--0------------------------|--------------------x-----|
---------------------------|--------------------x--0--|
---------------------0--1--|--3-----------------------|

Csus2 F
E E E E E E E E E E E E E E E E
--------------3--------------|-----------1--------------|
-----------3--------3--------|-----------------1--------|
--------5--------5-----x-----|--------2-----2-----x-----|
-----------------------x-----|-----3--------------x-----|
--3--------------------x-----|--------------------x--0--|
--------------------------0--|--1-----------------------|

BbM7 C/Bb Am7 Dm7 Gm Csus2


Q E E Q E E Q E E E E E E E E E E
--1----------0-------0---|--L----1------------------|-----------3-----|
--3----------1-------1---|--L----1------------3-----|-----------3-----|
--2----x-----0----x--0---|--L----2---x--------3-----|--------5-----5--|
-------x----------x------|-------0---x-----5--------|-----------------|
--1----x--1--1----x--0---|--L--------x--------------|--3--------------|
-------------------------|--------------3--------3--|-----------------|

==========
[ADLIB]:
==========

[GUITAR 1]:
[ Tab from: http://www.guitaretab.com/m/mymp/286336.html ]
F Bbm/F
^
E E E E E E E E E E E E E E E E
--1--------1-----1--------|--------------1-----1--------|
--1--------1--------------|--2-----------2--------------|
--2-----2-----2-----x-----|-----------3-----3-----x-----|
--3--3--------------x-----|--------3--------------x-----|
--3-----------------x-----|-----------------------x-----|
--1--------------------1--|--1-----------------------1--|
BbM7/F F
E E E E E E E E E E E E E E E E
---------------1-----1--------|-----------1-----1--------|
--3------------3--------------|--2--------2-----2--------|
------------2-----2-----x-----|--------2-----2-----x-----|
---------3--------------x-----|-----3--------------x-----|
------------------------x-----|--------------------x--0--|
--1------------------------1--|--1-----------------------|

F F
E E E E E E E E E E E E E E E E
--1--------1-----1--------|--1--------1-----1--------|
--1-----1--1-----1--------|--1-----1--1-----1--------|
--------2-----2-----x-----|--------2-----2-----x-----|
-----3--------------x-----|-----3--------------x-----|
--------------------x--0--|--------------------x--0--|
--1-----------------------|--1-----------------------|

Dm7 C F
E E E E E E E E E E E E E E E E
------------1-----------1--|--------0-----------------|
---------1--------1--------|--------1-----------1-----|
------2--------2-----2-----|-----0--------------2-----|
--0------------------------|-----------------3-----3--|
---------------------------|--3-----------------------|
---------------------------|-----------0--1-----------|

BbM7 BbM7
E E E E E E E E E E E E E E E E H. E E
-------------1--------------|-------------1--------------|---------------------|
----------3--------3--------|----------3--------3--------|---------------------|
-------2--------2-----x-----|-------2--------2-----x-----|--3------------x-----|
----------------------x-----|----------------------x-----|--5------------x-----|
--1-------------------x-----|--1-------------------x-----|---------------x-----|
-------------------------1--|-------------------------0--|--3---------------0--|

[GUITAR 2]:

^
E E E E E. E. E S S S E. E Q. S S
-------|--1----------------------|-------------------------------|
-------|--1---------------6---8--|--8s-10-L-10---8---------8s-10-|
-------|--2-----2--3--6----------|------------------5------------|
-------|--3--3------------3---5--|--5s--7-L--7---5---------5s--7-|
-------|--3--------1--4----------|------------------3------------|
-------|--1----------------------|-------------------------------|
E E E Q. E S S E Q Q. E S S
--9------------------------|---------------------------|
---------------------8s-10-|---L--8--------------8s-10-|
--6--------5------x--------|-----------5------x--------|
-----7--5---------x--5s--7-|---L--5-----------x--5s--7-|
-----------3------x--------|-----------3------x--------|
---------------------------|---------------------------|

E E. E. Q E S S Q. S S Q E S S
---------------------------|---------------------------|
--L--10---8---6------------|---------------------------|
-------------------x--5s-7-|--5----------------x-------|
--L---7---5---3----x-------|---------7s-8-7----x--3s-5-|
-------------------x--3s-5-|--3----------------x-------|
---------------------------|---------5s-6-5------------|

E E E E E E E E Q E E Q E E
-----------------3--5--8b--|--8--------------------------|
-----------3--6------------|-------8b--8-----------------|
--2--3--5------------------|--------------10-------------|
---------------------------|--------------------10b--10--|
---------------------------|-----------------------------|
---------------------------|-----------------------------|

Q. Q E E E E E E E H
----------------------------|-----------------------------|-----------|
----------------------------|-----------------------------|-----------|
----------------------------|----------10--10b--10--------|-----------|
----------------------------|--10--12---------------------|-----------|
--10------8----10b-----10b--|-----------------------------|-----------|
----------------------------|-----------------------------|-----------|

==========
[REFRAIN]:
==========

E E E Q. E E H. E E E E E Q. E E
------------------------|---------------------|------------------------|
-----------3------------|---------------------|-----------3------------|
--------2---------x-----|--3------------x-----|--------2---------x-----|
-----4------------x-----|--5------------x-----|-----4------------x-----|
------------------x-----|---------------x-----|------------------x-----|
--3------------------0--|--3---------------0--|--3------------------0--|
Csus2 Csus2
^ ^
E E E E E E E E E E E E E E E E
--3-----------------3--------|--3-----------------3--------|
--3-----------3--------x-----|--3-----------3--------x-----|
--5--------5-----5-----x-----|--5--------5-----5-----x-----|
--5-----5--------------x-----|--5-----5--------------x-----|
--3--------------------x-----|--3--------------------x-----|
--------------------------3--|--------------------------3--|

F F
E E E E E E E E E E E E E E E E
-----------------1--------|-----------------1--------|
--1--------1--------------|-----------1--------------|
--------2-----2-----x-----|--3-----3-----2-----x-----|
-----3--------------x-----|-----3--------------x-----|
--------------------x-----|--------------------x-----|
--1--------------------1--|--1--------------------1--|

=============
[PRE CHORUS]:
=============

BbM7 C/Bb
E E E E E E E E E E E E E E E E
--1----------1--------------|--0----------0--------------|
----------3--------3--------|----------1--------1--------|
-------2--------2-----x-----|-------0--------0-----x-----|
----------------------x-----|----------------------x-----|
--1-------------------x--1--|--1-------------------x--1--|
----------------------------|----------------------------|

Am7 Dm7 C
E E E E E E E E E E E E E E E E
--0---------0--------------|---------1-----------0-----|
---------1--------1--------|---------1-----------1-----|
------0--------0-----x-----|------2-----------0--------|
---------------------x-----|--0------------------------|
--0------------------x--0--|------------0--3--------0--|
---------------------------|---------------------------|

BbM7 Em
E E E E E E E E E E E E E E E E
-------------1--------------|-----------0--------------|
----------3--------3--------|-----------------0--------|
-------2--------2-----x-----|--------0-----0-----x-----|
----------------------x-----|-----2--------------x-----|
--1-------------------x--0--|--------------------x-----|
----------------------------|--0--------------------0--|

Asus7 A7
E E E E E E E E E E E E E E E E
--------------0--------------|-----------0--------------|
--3--------3--------3--------|--2-----2--------0--------|
-----------------0--------0--|-----0--------0--------x--|
--------2--------------2-----|--------------------5--x--|
--0--------------------------|--0-----------------3--x--|
-----------------------------|--------------------------|

===============
[FINAL CHORUS]:
===============

Dm7 Gm
E E E E E E E E E E E E E E E E
------------1--------------|-----------3--------------|
---------1--------1--------|--------3--------3--------|
------2--------2-----------|-----3--------3-----x-----|
--0------------------------|--------------------x-----|
---------------------------|--------------------x--0--|
---------------------0--1--|--3-----------------------|

Csus2 F
E E E E E E E E E E E E E E E E
--------------3--------------|-----------1--------------|
-----------3--------3--------|-----------------1--------|
--------5--------5-----x-----|--------2-----2-----x-----|
-----------------------x-----|-----3--------------x-----|
--3--------------------x-----|--------------------x--0--|
--------------------------0--|--1-----------------------|

BbM7 C/Bb Am7 Dm7 Gm


Q E E Q E E Q E E E E E E
--1----------0-------0---|--L----1------------------|
--3----------1-------1---|--L----1------------3-----|
--2----x-----0----x--0---|--L----2---x--------3-----|
-------x----------x------|-------0---x-----5--------|
--1----x--1--1----x--0---|--L--------x--------------|
-------------------------|--------------3--------1--|

Em Asus7 A7
E E E E E E E E E E E E E E E E E E E E
--------0--------------------|--0--------------------0--|--------------|
--------0-----------------3--|-----3-----3--2-----2-----|-----2--------|
--------0--------------0-----|--------0--------0--------|--0-----x-----|
-----2--------------2--------|--------------------------|--------x-----|
--------------0--------------|--------------0-----------|--------x--0--|
--0--------0-----------------|--------------------------|--------------|

Dm7 Gm
E E E E E E E E E E E E E E E E
------------1--------------|-----------3--------------|
---------1--------1--------|--------3--------3--------|
------2--------2-----------|-----3--------3-----x-----|
--0------------------------|--------------------x-----|
---------------------------|--------------------x--0--|
---------------------0--1--|--3-----------------------|

Csus2 F
E E E E E E E E E E E E E E E E
--------------3--------------|-----------1--------------|
-----------3--------3--------|-----------------1--------|
--------5--------5-----x-----|--------2-----2-----x-----|
-----------------------x-----|-----3--------------x-----|
--3--------------------x-----|--------------------x--0--|
--------------------------0--|--1-----------------------|

BbM7 C/Bb Am7 Dm7 Gm F


Q E E Q E E Q E E E E E E E E E E E E E E
--1----------0-------0---|--L----1------------------|-----------------1--------|
--3----------1-------1---|--L----1------------3-----|-----------1--------------|
--2----x-----0----x--0---|--L----2---x--------3-----|--------2-----2-----x-----|
-------x----------x------|-------0---x-----5--------|-----3--------------x-----|
--1----x--1--1----x--0---|--L--------x--------------|--------------------x-----|
-------------------------|--------------3--------3--|--1--------------------1--|

F BbM7 C/Bb Am7 Dm7 Gm


E E E E E E E E Q E E Q E E Q E E E E E E
-----------------1--------|--1----------0-------0---|--L----1------------------|
-----------1--------------|--3----------1-------1---|--L----1------------3-----|
--------2-----2-----x-----|--2----x-----0----x--0---|--L----2---x--------3-----|
-----3--------------x-----|-------x----------x------|-------0---x-----5--------|
--------------------x-----|--1----x--1--1----x--0---|--L--------x--------------|
--1--------------------1--|-------------------------|--------------3--------3--|

E E E E H W
-----------3--L--------|--L----------------|-----|-----||
-----------3--L--------|--L----------------|-----|-----||
--------5--------------|-------------------|-----|-----||
-----5-----------------|-------------------|-----|-----||
--3--------------------|-------------------|-----|-----||
-----------------------|-------------------|-----|-----||

Duration Legend
---------------
W - whole
H - half
Q - quarter
E - 8th
S - 16th
. - note dotted