Sei sulla pagina 1di 6

COLPO SU COLPO

Gen Arcobaleno Binario 1

INTRO: SOL RE MI- DO DO7+


SOL RE
SOL RE Ricordo i momenti felici
Stringi la morsa sul cuore MI-/DO7+ DO
MI-/DO7+ DO mi fai male sai ma non te ne accorgi
prepari con cura ogni singolo arnese. SOL RE
SOL RE ma poi piano piano mi affido
La roccia pi fredda e pi dura MI-/DO7+ DO RE4 RE
MI-/DO7+ DO RE4 RE a quel colpo deciso, si riaprono gli occhi.
futura creatura secondo il tuo sogno. SOL RE
SOL RE Ti guardo negli occhi e mi vedo
Cade improvviso il tuo pugno MI-/DO7+ DO
MI-/DO7+ DO qui dentro il tuo sogno pi libero e vero;
violento e preciso per primo ha scalfito SOL RE
SOL RE mi perdo in quel cielo di pace
quel cuore da tempo affidato MI-/DO7+ DO RE4 RE
MI-/DO7+ DO RE4 RE in cui tutto luce tu torni al lavoro
riscosso dallurto rimane sorpreso.

SOL
SOL Colpo su colpo su colpo
Colpo su colpo su colpo SI-
SI- con maglio e scalpello
con maglio e scalpello MI-
MI- con colpo deciso scolpisci tuo figlio
con colpo deciso scolpisci tuo figlio DO
DO tu senza parole, ma amore per me.
tu senza parole e senza piet. SOL
SOL Sanguina il cuore alla roccia
Sanguina il cuore alla roccia SI-
SI- e schegge di anima volano via
e schegge di anima volano via MI-
MI- una goccia di lacrima scivola e bagna il tuo viso
una goccia di lacrima scivola e bagna il tuo viso DO RE SOL SI- MI- DO
DO RE SOL SI- MI- DO e ti vedo... tu piangi per me. 2V
e ti chiedo di dirmi perch.
MI- DO
Tu piangi con me.

STACCO: SOL RE MI- DO DO7+

SOL RE
Ma poi piano piano mi affido
MI-/DO7+ DO (SOL)
a quel colpo deciso, si riaprono gli occhi...
LA PARABOLA DEL SEMINATORE
(Comunit Cenacolo)

MI FA#-
Sai che un seme seminato fra i sassi
LA DO#- SI
nasce subito e radici non ha
MI SI LA
e cos al primo raggio di sole tutto brucier
MI FA#-
Cos accoglier la Parola con gioia
LA DO#- SI
se non sei costante non servir
MI SI LA
basta un soffio un po pi forte di vento e tutto croller

MI (SI) DO#- LA
Ma Tu Signore fa di me la terra buona
MI SI DO#- LA
Tu coltivami e semina nel cuore la Parola
MI (SI) DO#- LA
Signore fa di me la terra buona
MI SI DO#- LA
Fammi crescere e portare il frutto della tua parola
MI SI DO#- LA MI SI DO#- LA
.in mein me..

MI FA#-
Sai un seme messo lungo la strada
LA DO#- SI
cibo per gli uccelli diventer
MI SI LA
quello invece andato in mezzo alle spine soffocher
MI FA#-
Cos il male pu rubarti dal cuore
LA DO#- SI
quel che il Padre ha messo dentro di te
MI SI LA
o le spine degli affanni del mondo soffocarlo

RIT
solo violino (con accordi del RIT)
RIT (2 volte)

MI FA#-
Sai che un seme seminato fra i sassi
LA DO#- SI
nasce subito e radici non ha
MI SI LA
Ma con Te qualsiasi piccolo seme frutto porter
NOW THAT YOURE NEAR
HILLSONG

C#m7 A E B
Hold me in Your arms, never let me go.
C#m7 A E B
I want to spend eternity with You.

Intro: E-F#m7-E/G#-A (4x)

verse:
E A C#m7
I stand before You Lord, And give You all my praise
A B
Your love is all I need, Jesus You're all I need
E A C#m7
My life belongs to You, You gave your life for me
A B
Your grace is all I need , Jesus You're all I need

Pre Chorus:
C#m7 A E B
Hold me in Your arms, Never let me go
C#m7 A E B
I want to spend eternity with You

Chorus:
E B
And now that You're near
C#m7 A
Everything is different, Everything's so different Lord
E B C#m7
I know I'm not the same, My life You've changed
A Intro chords
And I want to be with You, I want to be with(YOU)...

C#m7 A E B
And I will sing for you always,
C#m7 B A
'cause in Your presence God is where I want to stay

C#m7-A-E-B x2 (without vocals)

Pre Chorus | Chorus


NOW THAT YOURE NEAR Hillsongs
-----------------------------------------------------------------
Tabbed by: Graham Choo
Email: da_tweens@yahoo.co.uk

Tuning: Standard
Intro:
C#m A E B C#m A E B
e|-0---0---0---0---0---0---0---0---------------------------------|
B|-0---0---0---0---0---0---0---0---------------------------------|
G|-6---2---1---4---6---2---1---4---------------------------------|
D|-6---2---2---4---6---2---2---4---------------------------------|
A|-4---0---2---2---4---0---2---2---------------------------------|
E|---------0---------------0-------------------------------------|
Pre-Chorus:
C#m A E B C#m A E B
e|-0---0---0---0---0---0---0---0---------------------------------|
B|-0---0---0---0---0---0---0---0---------------------------------|
G|-6---2---1---4---6---2---1---4---------------------------------|
D|-6---2---2---4---6---2---2---4---------------------------------|
A|-4---0---2---2---4---0---2---2---------------------------------|
E|---------0---------------0-------------------------------------|
Interlude:
E F#m G#m A E F#m G#m A
e|-0---0---0---0---0---0---0---0---------------------------------|
B|-0---0---0---0---0---0---0---0---------------------------------|
G|-1---2---4---6---1---2---4---6---------------------------------|
D|-2---4---6---7---2---4---6---7---------------------------------|
A|-2---4---6---7---2---4---6---7---------------------------------|
E|-0-----------5---0-----------5---------------------------------|
Verse 1:
E Esus E A C#m A B E Esus E A C#m A B
e|-0---0---0---0---0---0---0---0---0---0---0---0---0---0---------|
B|-0---0---0---0---0---0---0---0---0---0---0---0---0---0---------|
G|-1---2---1---2---6---2---4---1---2---1---2---6---2---4---------|
D|-2---2---2---2---6---2---4---2---2---2---2---6---2---4---------|
A|-2---2---2---0---4---0---2---2---2---2---0---4---0---2---------|
E|-0---0---0-------------------0---0---0-------------------------|
Pre-Chorus
Chorus:
E B C#m A E B C#m A B
e|-0---0---0---0---0---0---0---0---0-----------------------------|
B|-0---0---0---0---0---0---0---0---0-----------------------------|
G|-1---4---6---2---1---4---6---2---4-----------------------------|
D|-2---4---6---2---2---4---6---2---4-----------------------------|
A|-2---2---4---0---2---2---4---0---2-----------------------------|
E|-0---------------0---------------------------------------------|
Interlude
Verse 1
Pre-Chorus
Chorus
Bridge:
C#m B E B C#m B A
e|-4---0---0---0---4---0---0-------------------------------------|
B|-5---0---0---0---5---0---0-------------------------------------|
G|-6---4---1---4---6---4---2-------------------------------------|
D|-6---4---2---4---6---4---2-------------------------------------|
A|-4---2---2---2---4---2---0-------------------------------------|
E|---------0-----------------------------------------------------|
Intro
Pre-Chorus
Chorus 2x
Interlude
| / slide up
| \ slide down
| h hammer-on
| p pull-off
| ~ vibrato
| + harmonic
| x Mute note