Sei sulla pagina 1di 71

Era!

Ameno
Guitarra: Principal
1.654 reproducciones
Tono: E
G#m
Dori me
Interimo adapare
E
Dori me
Ameno ameno
F# Ebm
Lantire Lantiremo
G#m
Dori me

G#m
Ameno
Omenare imperavi
E
Ameno
Dimere dimere
F# Ebm
Mantiro Mantiremo
G#m
Ameno

G#m
Omenare imperavi emulari
Ameno
Omenare imperavi emulari

C#m
Ameno
Cdim
Ameno dore
B A E/G#
Ameno dori me
A E
Ameno dori me
C#m
Ameno dom
Cdim
Dori me reo
B A E/G#
Ameno dori me
A E
Ameno dori me
G#m E
Dori me am

G#m
Ameno
Omenare imperavi
E
Ameno
Dimere dimere
F# Ebm
Mantiro Mantiremo
G#m
Ameno

G#m
Omenare imperavi emulari
Ameno
Omenare imperavi emulari

C#m
Ameno
Cdim
Ameno dore
B A E/G#
Ameno dori me
A E
Ameno dori me
C#m
Ameno dom
Cdim
Dori me reo
B A E/G#
Ameno dori me
A E
Ameno dori me

C#m Cdim B A E/G# A E C#m Cdim B A E/G# A E G#m


Dori me am

C#m
Ameno
Cdim
Ameno dore
B A E/G#
Ameno dori me
A E
Ameno dori me
C#m
Ameno dom
Cdim
Dori me reo
B A E/G#
Ameno dori me
A E
Ameno dori me
C#m
Dori me am
Cdim
Ameno dore
B A E/G#
Ameno dori me
A E
Ameno dori me
C#m
Ameno dom
Cdim
Dori me reo
B A E/G#
Ameno dori me
A E
Ameno dori me
C#m (e vai repetindo at o final)
Dori me am

Era!
Divano
Guitarra: Principal
398 reproducciones
Tono: D#
divano, divano re... (refro)

E|------------------------------------3--------------------------|
B|-0-2-3---3-2-3-5---5-3-2-2-3-3---3-2-2-0-0---------------------|
G|---------------------------------------------------------------|
D|---------------------------------------------------------------|
A|---------------------------------------------------------------|
E|---------------------------------------------------------------|

E|---------------------------------------------------------------|
B|-0-2-3---3-2-3-5---5-3-2-2-3-3---7-5-3-7-5-5-------------------|
G|---------------------------------------------------------------|
D|---------------------------------------------------------------|
A|---------------------------------------------------------------|
E|---------------------------------------------------------------|

Cm
Infanat ora

Si temi mode pregat


Eb Bb
Impera centra daemon terra
Cm
Era domine

Infanatoca

Si temi mode pregat


G#
Et amima dove core
G
Infana dio re
Cm C
Infanati grazie

G# Eb Fm Eb
Divano divano me divano messi
Bb Eb Fm Eb
Divano messia divano messia
G# Eb Fm Eb
Divano divano me divano mesi
Bb
Divano messia mesia mesia

Era!
Avemano
Guitarra: Principal
28 reproducciones
Tono: D
Intro: A

Omale
Malebo
Diome

G
Avemano
D E5/B
Iveno rore
D A G
Imeno carime (Imeno malebo dio)
G
Avemano
D E5/B D
Iveno rore (Omen dire)
A G
Diave nero (Imeno malebo dio)

Bm
Ave
A
Amen-to mira (Mira)
G
Toro mantiro (Manttro)

Amen-to mi (Mare)
F#m
Dodeo

Em
Malevo (Levo)
A
Amen-to mire (A-men mire)
G
Tovoli teo (Tovoli teo)
D
Amen-to mia (A-men mia)
G
Corame

G
Avemano
D E5/B
Iveno rore
D A G
Imeno carime (Imeno malebo dio)
G
Avemano
D E5/B D
Iveno rore (Omen dire)
A G
Diave nero (Imeno malebo dio)

Solo: Bm A G F# Bm A G D A

G
Avemano
D E5/B
Iveno rore
D A G
Imeno carime (Imeno malebo dio)
G
Avemano
D E5/B D
Iveno rore (Omen dire)
A G G
Diave nero (Imeno malebo dio)
D
Dio
E5/B
Dio
D A (G)
O malebo dio ...

G
Avemano
D E5/B
Iveno rore
D A G
Imeno carime (Imeno malebo dio)
G
Avemano
D E5/B D
Iveno rore (Omen dire)
A G G
Diave nero (Imeno malebo dio)

Solo: Bm A G F# Bm A G F# Bm
Artist
: 4 Non Blondes
Song: What's up?

Standart tuning,
Capo on the 2nd fret.

This Version is easier than the Original chords. But if you want to play the
Original chords for this song, look for the grid:

With capo on the 2nd fret /// Without a capo

G /// A
Am /// Bm
C /// D

G
Twenty Five years and my life is still
Am C
Trying to get up that great big hill of hope
G
For a destination
G
I realized quickly when I knew that I should
Am C
That the world was made of this brotherhood of man
G
For whatever that means

G
And So I cry sometimes when I'm lying in bed
Am
Just to get it all out

C G
whats in my head and I, I am feeling a little peculiar.
G
So I wake in the morning and I step outside
Am
and I take a deep breath and I get real high and
C G
I Scream at the top of my lungs WHATS GOIN ON?

Chorus:
[ Tab from: http://www.guitaretab.com/numeric/4-non-blondes/64.html ]
G
And I said Heyeyeyeyey
Am
Heyeyey
C G
I said Hey Whats going on?
G
And I said Heyeyeyeyey
Am
Heyeyey
C G
I said Hey Whats going on?

G Am C G
Ooh, Ooh Ooh
G Am
And I try, oh my god do I try
C G
I try all the time, in this institution
G Am
And I pray, oh my god do I pray
C
I pray every single day
G
For a revolution

G
And So I cry sometimes when I'm lying in bed
Am
Just to get it all out
C G
whats in my head and I, I am feeling a little peculiar.
G
So I wake in the morning and I step outside
Am
and I take a deep breath and I get real high and
C G
I Scream at the top of my lungs WHATS GOIN ON?

Chorus:

G
And I said Heyeyeyeyey
Am
Heyeyey
C G
I said Hey Whats going on?
G
And I said Heyeyeyeyey
Am
Heyeyey
C G
I said Hey Whats going on?

G
Twenty-five years and my life is still
Am C
Trying to get up that great big hill of hope
G
For a destination

What's Up
4 Non Blondes
Cifra: Principal
exibies645.434
Tom: D
Intro: A Bm D A (2X)

A B D A
E|-------------------------------------------------------|
B|4/5-5-5-5---------------------------2----------3-------|
G|-----------2---2-2-2--------2-------2---2---2----2-4b-2|
D|---------------------4--2-4---4-2-4---4----------------|
A|-------------------------------------------------------|
E|-------------------------------------------------------|

Primeira Parte:

E|-------------------------------------------------------|
B|-----------------------------------------------3-------|
G|-----------2---2-2-2--------2-------2---2---2----2-4b-2|
D|2-4-2-4--------------4--2-4---4-2-4---4----------------| (Toca uma vez,
junto com a voz)
A|-------------------------------------------------------|
E|-------------------------------------------------------|

A
25 years of my life and still
Bm D
Tryin' to to get up that great big hill of hope
A
For a destination
A
I realized quickly when I knew I should
Bm
That the world was made up of this
D
Brotherhood of man
A
For whatever that means
A
And so I cry sometimes, when I'm lying in bed
Bm
Just to get it all out, what's in my head, then I
D A
I am feeling, a little peculiar
A
And so I wake in the morning, and I step outside
Bm
And I take a deep breath, and I get real high and I
D A
Scream from the top of my lungs, What's going on
Refro:

A Bm
And I say, Hey yeah yeah hey, hey yeah yeah
D A
I said, Hey, what's going on
A Bm
And I say, Hey yeah yeah hey, hey yeah yeah
D A
I said, Hey, what's going on

Repete Intro: A Bm D A (2X)

Repete Primeira Parte:

A Bm D
And I try, oh my God, do I try, I try all the time
A
In this institution

A Bm
And I pray, oh my God, do I pray
D A
I pray every single day for a revolution
A
And so I cry sometimes, when I'm lying in bed
Bm
Just to get it all out, what's in my head, then I
D A
I am feeling, a little peculiar
A
And so I wake in the morning, and I step outside
Bm
And I take a deep breath and I get real high, and I
D A
Scream from the top of my lungs, What's going on

Repete Refro:

A Bm
And I say, Hey yeah yeah hey, hey yeah yeah
D A
I said, Hey, what's going on

A Bm
And I say, Hey yeah yeah hey, hey yeah yeah
D A
I said, Hey, what's going on

A Bm
And I say, Hey yeah yeah hey, hey yeah yeah
D A
I said, Hey, what's going on

A Bm
And I say, Hey yeah yeah hey, hey yeah yeah
D A Bm D
I said, Hey, what's going on

Parte Final:

A
25 years of my life and still
Bm D
Tryin' to to get up that great big hill of hope
A
For a destination

Outside" (Live) by Staind w/ Fred Durst

these are the basic chords played throughout the song.


The rythem isn't hard to figuire out, just listen to it,
and work with it...

Verses

Eb Db F# G# minor
E --------- -------- -----2---- ----4----
A ----6---- ----4--- -----4---- ----6----
D ----8---- ----6--- -----4---- ----6----
G ----8---- ----6--- -----3---- ----4----
B --------- -------- -----2---- ----4----
E --------- -------- -----2---- ----4----

Chorus

Eb F# (2) Db G# major
E --------- --------- --------- ----4-----
A ----6---- ----9---- ----4---- ----6-----
D ----8---- ----11--- ----6---- ----6-----
G ----8---- ----11--- ----6---- ----5-----
B --------- --------- ----4---- ----4-----
E --------- --------- ----4---- ----4-----

Intro
Eb Db F# G#m (play 2x)

Verse 1
Eb Db F# G#m
When You Bring me to my knee.
Eb Db F# G#m
All this time that I can beg you please.
Eb Db F# G#m
All the times that I've felt insecure.
Eb Db F# G#m
And I leave my burdens at the door.
Chorus
Eb
I'm on the outside
F# (2)
I'm looking in
Db
I can see through you,
G# major
see your true colors.
Eb
Inside you're ugly.
F# (2)
Your ugly like me.
Db
I can see through you
G# major
see you the real you.

Eb Db F# G#m (play 2x)

Verse 2
Eb Db F# G#m
All this time that i felt like this won't end, was for you.
Eb Db F# G#m
And I taste, but I could never have, its from you.
Eb Db F#m G#m
All those times that i tried, my intention, Full of pride
Eb Db F#m G#m
And I waste more time than anyone.

Chorus
Eb
I'm on the outside
F# (2)
I'm looking in
Db
I can see through you,
G# major
see your true colors.
Eb
'cause inside you're ugly.
F# (2)
Your ugly like me.
Db
I can see through you
G# major
see you the real you.

Eb Db F# G#m

Verse 3
Eb Db
All the times that I've cried,
F# G#m
all this wasted it's all inside
Eb Db
and I feel all this pain
F# G#m
Stuffed it down it's back again
Eb Db
And I lie here in bed
F#m G#m
All alone, i can't mend
Eb Db F# G#m
And I feel tomorrow will be okay, but I know

Chorus
Eb
That I'm on the outside
F#
I'm looking in
Db
I can see through you,
G# major
see your true colors.
Eb
'cause inside you're ugly.
F#
Your ugly like me.
Db
I can see through you
G# major
see you the real you.

Icarus

F#m E D
You're standing out there
F#m A E
The wind caresses the air
F#m E
It's all grey around
D
I can't hear no sound
F#m E
While you take away the leaves from your shoulder
C#m D
I strive for you
F#m E F#m
And I hope your heart didn't stop beating

E D F#m A E
So close we are but you've never been so far
F#m E D
I feel like falling down, I just can't hear no sound
F#m E
When you take away my hand from your shoulder

C#m D
I can't lie to you
F#m E
So I hope this time is gonna be better
C#m D
I strive for you
F#m E
And I hope your heart didn't stop beating

D E F#m E
I feel so empty here
D E F#m
I feel so empty
E
So empty

Piano fill:
E D A E


Author

Tatepod 20

Icarus (Halfway across the sky) guitar chords.


I learned by ear and this is my first post for a tablature so Gimme some slack c:
Hope this helps you!
\m/(^-^)\m/

Intro:
Single strumming;

Am
Your standing out there,
G
The wind caresses the air,
Am
It's all grey around,
C
I can't hear no sound...
Em
While you take away,
C
The leaves from your shoulder...

Pre chorus:

D Am
I strive.. For you,
G
And I hope your Heart,
Am
Didn't stop beating...

Verse 2:

Em
So close we are,
C D
But you never been so far...
D
I feel like falling down
G
I just can't hear no sound,
Em
When you take away,
C
My hand from your shoulder...

Pre chorus:
Em Am
I cant lie, to you...
Em
So I hope this time,
D
Is gonna be better...

D Am
I strive.. For you,
G
And I hope your Heart,
Am
Didn't stop beating...

Chorus:
C
I feel,
G D
So empty, here...
;Repeat 2x;

(instrumental piano music)

(Strum slightly at a moderate pace to keep with rhythm)

G
I Feel... so empty here,
G
I feel... So empty, empty!

Chorus:
C
I feel,
G D
So empty, here..
C
I feel,
G
So empty,
D
Empty...

(1st verse repeat x1)

Am
Your standing out there,
G
The wind caresses the air...

The End.
Hope this helped... At all xD
*Holden- Ce que je suis*

Accords:

Em G Am Dm F

****************************************

Capo en 1ere case

*intro: F Em Dm

F G
J'ai, j'ai bien le droit
Am
J'ai bien le droit aussi
F G Am
De faillir, de faillir jusqu' mesurer le prix
F G
Mais qu'est ce qu'il m'arrive
Am
Je ris aux larmes, je larme aux ri
F G
Mais qu'est ce qu'il m'arrive
Am
Je dors au bord de mon lit

F G
Oh comme je regrette
Am
Je ne suis pas ce que je suis
F G
Les murs ont des oreilles
Am
Les murs me parlent trop
Oh comme je dteste
Je ne suis pas ce que je suis
La lune qui me surveille
La lune est dans mon dos

F G
J'ai, j'ai bien le droit
Am
J'ai bien le droit aussi
F G
De railler, drailler
Am
Epuiser toutes mes enves

F G
Mais qu'est ce qu'il m'arrive
Am
J'oublie, je bois, je bois l'oubli

F G
Mais qu'est ce qu'il m'arrive
Am
Je dors au bord de mon lit
F G
Oh comme je regretted
Am
Je ne suis pas ce que je suis
F G
Les murs ont des oreilles
Am
Les murs me parlent trop

*interlude:

Em G Am Dm (deux fois)
puis F Em Dm

J'ai, j'ai bien le droit


J'ai bien le droit aussi
De conduire, les conduire
Les hommes au bout de la nuit

Oh comme je regrette
Je ne suis pas ce que je suis
Les murs ont des oreilles
Les murs me parlent trop
Oh comme je dteste
Je ne suis pas ce que je suis
La lune qui me surveille
La lune est dans mon dos
Oh comme je regrette
Je ne suis pas ce que je suis
Les murs ont des oreilles
Les murs me parlent trop
Suggest correction Help us to improve Ultimate-Guitar.com Take our survey!


Artist: The Veronicas
Song: Cry
Tuning: Standard

[Intro]
Note: Strum every chord once; *strum* = strum continuously; only applies to
[Intro].
D D Em
All my life you've had an o-pin-ion
Em G
Doing things for the wrong rea-sons
G D*strum*
Well not to-day
D D Em
Don't you know I think for my-self
Em G*strum*
I get on fine without any-bo-dy's help
G*strum* D*strum*
Don't care what you say

[Verse 1]
Bm G D
I'm breaking your heart, but I'm breaking a-part
D A Bm
All you do is hold me, hold me down
Bm G D
Try to make me some-one I don't know
D A
I'm not the girl you'd thought you found

[Chorus]
D Em
What would you do
Em G D
If I told you, you can't con-trol my life
D Em
What would you say
Em G D
If I left today with no regrets and no goodbye
D Em
What would you do
Em G D
If I told you there is no more you and I
D Em G D*let ring*
What would you say if I walked away and left you there to cry

[Verse 2]
Bm G D
I don't know what's coming o-ver you
D A Bm
Or how we fell a-part
Bm G D
I tried so hard but I don't believe in you
D A
You're not the guy I thought I knew

[Chorus]
Note: Strum every chord once; *strum* = strum continuously; only applies to
[Chorus] above ----------.
D Em
What would you do
G D*strum*
If I told you, you can't con-trol my life
D Em
What would you say
G D*strum*
If I left today with no regrets and no goodbye
----------
D Em
And what would you do
Em G D
If I told you there is no more you and I
D Em G D
What would you say if I walked away and left you there to cry
D Em G D*let ring*
What would you say if I said to you, "Just go ahead and cry!"

SPEECHLESS

Help us to improve Ultimate-Guitar.com Take our survey!


Tuning
D# G# C# F# A# D#
It's been a while. I checked my contributions and found out how wrong my
other post was so I came to update it. Sadly though, I can't update my previous
entry.
I don't know why but here's my NEW version. I think it's accurate now.

This is from a live performance. They're almost the same except for the solo
part so I'll just post both.

TUNE YOUR GUITAR HALF STEP DOWN.

C9: X32033 D : XX0232 D/G : 200233


G : 320033 DSUS: XX0233
C : X32010 Em/G: 022033

Verse:
[JUST PLUCK YOUR WAY THROUGH THIS]
|----------------------------------------------------------|
|----------3------------3--------------1-----------3-------|
|-------------0------------0---------0----0----------0-----|
|------2------------0--------------2------------0----------|
|---3----------0h2--------------3-----------0h2------------|
|----------------------------------------------------------|
C9 G C G

C9 G
Feels like I have always known you
C G
And I swear I've dreamt about you
C9 G C G
All those endless nights I was alone

C9 G
It's like I've spent forever searching
C G
Now I know that it was worth it
C9 G C G
With you it feels like I am finally home

[STRUM THIS PART]


C
Falling head over heels
D
Thought I knew how it feels
C9 D
But with you it's like the first day of my life

G
Cuz you leave me speechless

C9<--(switch fast)-->Em/G D
When you talk to me

Dsus(then release*) G *as in go back to D


You leave me breathless
C9<--(switch fast)-->Em/G D
The way you look at me

Dsus(then release*) Em/G *as in go back to D


You manage to disarm me

D/G G
My soul is shining through

C D
Can't help but surrender

My everything to you

[JUST REPEAT THE EVERYTHING UP THERE^]

C9 G
I thought I could resist you
C G
I thought that I was strong
C9 G C G
Somehow you were different from what I've known

C9 G
I didn't see you coming
C G
You took me by surprise and
C9 G C G
You stole my heart before I could say no

C
Falling head over heels
D
Thought I knew how it feels
C9 D
But with you it's like the first day of my life

G
Cuz you leave me speechless

C9<--(switch fast)-->Em/G D
When you talk to me

Dsus(then release*) G *as in go back to D


You leave me breathless

C9<--(switch fast)-->Em/G D
The way you look at me

Dsus(then release*) Em/G *as in go back to D


You manage to disarm me

D/G G
My soul is shining through

C D
Can't help but surrender

My everything to you
RHYTHM GUITAR: CHORDS FROM THE CHORUS
LEAD GUITAR: SOLO

[LIVE VERSION]
|---10/12-10-----------------------------------------------|
|----------13-12----12/13-12-------------------------------|
|------------------------------14-12-----12h14p12----------|
|-------------------------------------13----------14-12----|
|----------------------------------------------------------|
|----------------------------------------------------------|

|----------------------------------------------------------|
|--------------13/15--13-12-10/12-10-8---------------------|
|--------12----14/16--14-13-11/13-11-7---------------------|
|--12h14---------------------------------------------------|
|----------------------------------------------------------|
|----------------------------------------------------------|

[STUDIO VERSION]

|----------------------------------------------------------|
|--12-12/14~-12-14-12-12-12-11-11-11-9-9-9-7-7-7-7/14------|
|----------------------------------------------------------|
|----------------------------------------------------------|
|----------------------------------------------------------|
|----------------------------------------------------------|

You leave me speechless


(the way you smile, the way you touch my face)
You leave me breathless
(it's something that you do I can't explain)
I'd run a million miles just to hear you say my name,
Baby

You leave me speechless


You leave me breathless
The way you look at me
You manage to disarm me
My soul is shining through
I can't help but surrender
My everything to you

Help us to improve Ultimate-Guitar.com Take our survey!


Author
paramore_fans 60,226
The Veronicas
Speechless
The Secret Life Of
2005
Submitted by: paramore_fans@yahoo.com

Key: F#
Tuning: Drop D

Chords used: For Drop D


B - x244xx or 999xxx
F#/Bb - x143xx or 898xxx
G#m - 666xxx
F# - 444xxx
C# - x466xx
Ebm - 111xxx
Bbm - x133xx or 888xxx
C#/F - 343xxx

Chords used: Standard EADGBe


B - x24442
F#/Bb - x143xx
G#m - 466444
F# - 244322
C# - x46664
Ebm - x68876
Bbm - x13321
C#/F - 143xxx

Verse 1:
B F#/Bb
feels like i have always known you
G#m F#/Bb
and i swear ive dreamt about you
B F#/Bb G#m F#/Bb
all those endless nights i was alone
B F#/Bb
its like i've spent forever searching
G#m F#/Bb
now i know that it was worth it
B F#/Bb G#m F#/Bb
with you it feels like i am finally home

Plucking:
B F#/Bb G#m F#/Bb
e|--------|--------|--------|------------|
B|--------|--------|--------|------------|
G|--------|--------|------4-|------------|
D|-----11-|-----11-|----6---|-----11-----| x4
A|---9----|---9----|--6-----|---9------9-|
D|-9------|-8------|6-------|-8------8---|

Refrain:
G#m
fallen head over heels
C#
thought i knew how it feels
G#m
but with you its like
C#(hold)
the first day of my life

Plucking:
G#m C# G#m C#
e|--------|-----------|------|----|
B|-9----9-|-6---6h7---|-9----|-6--|
G|-8----8-|-6-------7-|-8----|-6--|
D|-6--6---|-6---------|-6----|-6--|
A|-6------|-4---------|-6----|-4--|
D|-6------|-----------|-6----|----|

Chorus 1:
F#
coz you leave me speechless
B F#/Bb G#m
when you talk to me
C# F#
and you leave me breathless
B F#/Bb G#m
the way you look at me
C# Ebm
you've managed to disarm me
C#/F F#
my soul is shining through
G#m F#/Bb-Ebm
i can't help but surrender
C#
my everything to you oh

Post Chorus: B-F#/Bb-G#m-F#/Bb

Verse 2:
B F#/Bb
i thought i could resist
G#m
you i thought that
F#/Bb B
i was strong but somehow
F#/Bb
you were different
G#m F#/Bb
what ive known
B F#/Bb
i didn't see it coming
G#m F#/Bb
you took me by suprise
B
and you stole my heart
F#/Bb G#m F#/Bb
before i used know

(Repeat Refrain)
(Repeat Chorus 1)

Bridge: B-F#/Bb-G#m-F#/Bb-B-F#/Bb-G#m

Lead:
e|-2--2/6---7-7-6------------2/9-|
B|----------------9-9-7---7------|
G|----------------------6--------|
D|-------------------------------|
A|-------------------------------|
D|-------------------------------|
Chorus 2:
C#
coz you leave me speechless
F# B
(The way you smile the way
F#/Bb G#m
you touched my face)
C#
and you leave me breathless
F#
(There's something into
B F#/Bb G#m C#
you that I can't explain)
Ebm C#/F
I run a million miles just
F# G#m Ebm C#
to hear you say my name baby

Chorus 3:
C# F# B F#/Bb
coz you leave me speechless
C# F#
and you leave me breathless
B F#/Bb G#m
the way you look at me
C# Ebm
you've managed to disarm me
C#/F F#
my soul is shining through
G#m F#/Bb-Ebm
i can't help but surrender
C#(hold)
my everything to you oh

Outro: B-F#/Bb-G#m-F#/Bb-B-F#/Bb-G#m-C#-F#(end)

Suggest correction

SPEECHLESS

Help us to improve Ultimate-Guitar.com Take our survey!


Author
lilixi 53
I learned this from acoustic version of this song. Check it out:
http://www.youtube.com/watch?v=5gIP3SSH7Zs
I think it's a hole step higher than on the record. Pretty high to sing :))

Play it through the verses and for intro:


G/B Cadd9 Am7 G/B
e|-----------------------------------------|
B|-----3------3---------0h1-0-----3--------|
G|----3-3----3-3-------0-----0---3-3-------|
D|--------0-0----0----2--------------0-----|
A|--3------2--------0----------2-----------|
E|-----------------------------------------|

Feels like I have always known you


And I swear I dreamt about you
All those endless nights I was alone
It's like I've spent forever searching
Now I know that it was worth it
With you it feels like I am finally home

Am7
Falling head over heels
D
Thought I knew how it feels
Am7 D
But with you it's like the first day of my life

G
Cuz you leave me speechless
Cadd9 G/B Am7
When you talk to me
D G
You leave me breathless
Cadd9 G/B Am7
The way you look at me
D Em
You manage to disarm me
D G
My soul is shining through
Am7 D
Can't help but surrender
(no chords)
My everything to you

you can add this between Am7 and D :

Am7 D
e|-0--0-------2-------------|
B|-1---1------3-------------|
G|-0----0-----2-------------|
D|-2----------0-------------|
A|-0-----2-3--x-------------|
E|-x----------x-------------|

I thought I could resist you


I thought that I was strong
Somehow you are different from what I've known
I didn't see you coming
You took me by surprise and
You stole my heart before I could say no

Am7
Falling head over heels
D
Thought I knew how it feels
Am7 D
But with you it's like the first day of my life

G
Cuz you leave me speechless
Cadd9 G/B Am7
When you talk to me
D G
You leave me breathless
Cadd9 G/B Am7
The way you look at me
D Em
You manage to disarm me
D G (let ring)
My soul is shining through
Am7 D
Can't help but surrender
(no chords)
My everything to you

(here play chords same as in chours)


You leave me speechless
(the way you smile, the way you touch my face)
You leave me breathless
(it's something that you do I can't explain)
I'd run a million miles just to hear you say my name
Baby

You leave me speechless


You leave me breathless
The way you look at me
You manage to disarm me
My soul is shining through
I can't help but surrender
My everything to you

SPECHLESS 3

VERSE I:
C G Em
|---------------------------------------------------------|
|-------------------1-----------3--------------0----------|
|--------------------------------------------0------------|
|---------------2-------------0------------2--------------|
|-----------3----------------2-----------2----------------|
|---------------------------------------------------------|
feels like I have always known you and I swear I dreamt

C Am7 G
|---------------------------------------------------------|
|-----1-------------1---------------1---------------------|
|-------0-------------------------------------------------|
|---2-----------2--------------0--------------------------|
|-3-----------0--------------2----------------------------|
|---------------------------------------------------------|
about you all those endless nights I was alone
Am7 G
|---------------------------------------------------------|
|---------1-------------3---------------------------------|
|-------0-------------0----0------------------------------|
|-----2-------------0-------------------------------------|
|---0-------------2---------------------------------------|
|---------------------------------------------------------|

C G Em
|-------------------------------------------------------------|
|-----------------------1-----------3--------------0----------|
|------------------------------------------------0------------|
|-------------------2-------------0------------2--------------|
|---------------3----------------2-----------2----------------|
|-------------------------------------------------------------|
its like Ive spent forever searching now I know that it

C Am7 G
|---------------------------------------------------------|
|-----1-------------1-----------------------1-------------|
|-------0-------------------------------------------------|
|---2-----------2-----------------------0-----------------|
|-3-----------0----------------------2--------------------|
|---------------------------------------------------------|
was worth it witb you it feels like I am finally home

Am7 G
|---------------------------------------------------------|
|---------1-------------3---------------------------------|
|-------0-------------0----0------------------------------|
|-----2-------------0-------------------------------------|
|---0-------------2---------------------------------------|
|---------------------------------------------------------|

REFRAIN:

C A
falling head over heels thought I knew how it feels
C D
but with you its like the first day of my life

CHORUS:
G C D
Cause you leave me speechless when you talk to me
C G Em D
You leave me breathless the way you look at me
Dsus G Em D
You manage to disarm me my soul is shining through
Em C D
cant help but surrender

My everything to you

C G Em
|---------------------------------------------------------|
|-------------------1-----------3--------------0----------|
|-----------------0------------0--0----------0------------|
|---------------2-------------0------------2--------------|
|-----------3----------------2-----------2----------------|
|---------------------------------------------------------|

C
|---------------------------------------------------------|
|-----1---------------------------------------------------|
|----0--0-------------------------------------------------|
|---2-----------------------------------------------------|
|-3-------------------------------------------------------|
|---------------------------------------------------------|

VERSE II:
C G Em
|---------------------------------------------------------|
|-------------------1-----------3--------------0----------|
|--------------------------------------------0------------|
|---------------2-------------0------------2--------------|
|-----------3----------------2-----------2----------------|
|---------------------------------------------------------|
I thought I could resist you I thought that I was

C Am7 G
|---------------------------------------------------------|
|-----1-------------1---------------1---------------------|
|-------0-------------------------------------------------|
|---2-----------2--------------0--------------------------|
|-3-----------0--------------2----------------------------|
|---------------------------------------------------------|
strong somehow you are different from what Ive known

Am7 G
|---------------------------------------------------------|
|---------1-------------3---------------------------------|
|-------0-------------0----0------------------------------|
|-----2-------------0-------------------------------------|
|---0-------------2---------------------------------------|
|---------------------------------------------------------|

C G Em
|-------------------------------------------------------------|
|-----------------------1-----------3--------------0----------|
|------------------------------------------------0------------|
|-------------------2-------------0------------2--------------|
|---------------3----------------2-----------2----------------|
|-------------------------------------------------------------|
I didnt see it coming you took me by

C Am7 G
|---------------------------------------------------------|
|-----1-------------1-----------------------1-------------|
|-------0-------------------------------------------------|
|---2-------------2---------------------0-----------------|
|-3--------------0-------------------2--------------------|
|---------------------------------------------------------|
surprise and stole my heart before I could say no

Am7 G
|---------------------------------------------------------|
|---------1-------------3---------------------------------|
|-------0-------------0----0------------------------------|
|-----2-------------0-------------------------------------|
|---0-------------2---------------------------------------|
|---------------------------------------------------------|

REFRAIN:
C D
Falling head over heels thought I knew how it feels

C9 D
but with you its like the first day of my life

CHORUS:
G C D
Cause you leave me speechless when you talk to me
C G Em D
You leave me breathless the way you look at me
Dsus G Em D
You manage to disarm me my soul is shining through
Em C D
I cant help but surrender

My everything to you

BRIDGE:
(not sure about this solo)
e|--------------------------------------------------------------------|
B|---1111/14----1314-14-----13-13-13----12-12-12--10-10---11/15-----|
G|--------------------------------------------------------------------|
D|--------------------------------------------------------------------|
A|--------------------------------------------------------------------|
E|--------------------------------------------------------------------|
( PLAY THIS CHORDS WHILE DOING THIS SOLO [PLAY THE SOLO AFTER THE FIRST G]

G-C-D-G-Em-C-D)

G
You leave me speechless

C D
the way you smile the way you touch my face

C G
You leave me breathless

Em D
theres something that you do I cant explain

Em C G D
Id run a million miles just to hear you say my name baby, oh
G (1 strum each)Em-C-D
You leave me speechless

C G
You leave me breathless

Em D
The way you look at me

Dsus G
You manage to disarm me

Em D
My soul is shinning through

Em C D
I cant help but surrender my everything to you

C G Em
|---------------------------------------------------------|
|-------------------1-----------3--------------0----------|
|-----------------0------------0--0----------0------------| 2x
|---------------2-------------0------------2--------------|
|-----------3----------------2-----------2----------------|
|---------------------------------------------------------|

END 1 STRUM EACH C-G

CRY
Standard Tuning: Capo On The First Fret.

D
All my life youve had an opinion
D E
Doing things for the wrong reason
E G
Well not today
G D

D
Dont you know I think for myself
D E
I get on fine without anybodys help
E G
Dont care what they say
D

Bm G
Im breaking your heart
D
But Im breaking apart
A Bm
All you do is hold me, hold me down
G D
Try to make me someone I dont know
A
Im not the girl you thought you found

D E
What would you do
G D
If I told you, you cant control my life
D E
What would you say
G D
If I left today with no regrets and no goodbye
D E
What would you do
G D
If I told you, there is no more you and I
D E
What would you say
G D
If I walked away, and left you there to cry

Bm G D
I dont know whats coming over you
A
Or how we fell apart
Bm G D
I try so hard but I dont believe in you
A
Youre not the guy I thought I knew

D E
What would you do
G D
If I told you, you cant control my life
D E
What would you say
G D
If I left today, with no regrets and no goodbye
D E
What would you do
G D
If I told you, there is no more you and I
D E
What would you say
G D
If I walked away, and left you there to cry
D E
What would you say
G D
If I said to you, just go ahead and cry
have faith in me
This is my first tab so I'm not sure how accurate it is.
CAPO 5

[Intro]
e|----------------------------------------------|
B|---------3-----3----3----3----1---1----0---0--|
G|-------0----0----0----0-----0---0----0---0----|
D|----------------------------------------------|
A|----------------------------------------------|
E|----------------------------------------------|

Em G C
Have faith in me
Em G C
Cause there are things that I've seen I don't believe
Em G C
So cling to what you know and never let go
Em G C
You should know things aren't always what they seem

[Verse]
Em
I said I'd never let you go, and I never did
G
I said I'd never let you fall and I always meant it
C
If you didn't have this chance then I never did
D
You'll always find me right there, again

[Chorus]
Em G C
I'm going crazy
Em G C
Cause there are things in the streets I don't believe
Em G
So we'll pretend it's alright (pretend it's alright)
C
and stay in for the night
Em
Oh what a world
G C
I'll keep you safe here with me (with me)

[Verse]
Em
I said I'd never let you go, and I never did
G
I said I'd never let you fall and I always meant it
C
If you didn't have this chance then I never did
D
You'll always find me right there, again

[Chorus]
Em
I said I'd never let you go, and I never did
G
I said I'd never let you fall and I always meant it
C
If you didn't have this chance then I never did
D
You'll always find me right there, again

C G D
They've got me on the outside, looking in
Am C
But I can't see at all
G D
With the weight of the world on my shoulders,
Am
They just wanna see me fall

[Refrain]
C G D
They've got me on the outside, looking in
Am C
But I can't see at all
G D
With the weight of the world on my shoulders,
Am Em
They just wanna see me fall

Em G C (Palm Mute)
Have faith in me

[Chorus]
Em
I said I'd never let you go, and I never did
G
I said I'd never let you fall and I always meant it
C
If you didn't have this chance then I never did
D
You'll always find me right there, again

Em
I said I'd never let you go, and I never did
G
I said I'd never let you fall and I always meant it
C
If you didn't have this chance then I never did
D
You'll always find me right there, again

Em (palm mute)
I said I'd never let you go, and I never did
G (palm mute)
I said I'd never let you go, and I never did
C (palm mute)
I said I'd never let you go, and I never did
D (Hold)
I said I'd never let you go, and I never did

A DAY TO REMEMBER - HAVE FAITH IN ME CHORDS

[Intro Riff]

e|----3---3---3---3---1---1---0---0-|
B|--1---1---1---1---1---1---1---1---|
G|----------------------------------|
D|----------------------------------|
A|----------------------------------|
E|----------------------------------|

[Intro]

Am C F
Have faith in me
Am C F
Cause there are things that I've seen I don't believe
Am C F
So cling to what you know and never let go
Am C F
You should know things aren't always what they seem

[Chorus]

Am
I said I'd never let you go, and I never did
C
I said I'd never let you fall and I always meant it
F
If you didn't have this chance then I never did
G
You'll always find me right there, again

[Verse]

Am C F
I'm going crazy
Am C F
Cause there are things in the streets I don't believe
Am C F
So we'll pretend it's alright and stay in for the night
Am
Oh what a world
C F
I'll keep you safe here with me

[Chorus]

Am
I said I'd never let you go, and I never did
C
I said I'd never let you fall and I always meant it
F
If you didn't have this chance then I never did
G
You'll always find me right there, again

Am
I said I'd never let you go, and I never did
C
I said I'd never let you fall and I always meant it
F
If you didn't have this chance then I never did
G
You'll always find me right there, again

[Bridge]

F C G
They've got me on the outside, looking in
D/E F
But I can't see at all
C G
With the weight of the world on my shoulders,
D/E
They just wanna see me fall
F C G
They've got me on the outside, looking in
D/E F
But I can't see at all
C G
With the weight of the world on my shoulders,
D/E
They just wanna see me fall

[Intro Riff] again

e|----3---3---3---3---1---1---0---0-|
B|--1---1---1---1---1---1---1---1---|
G|----------------------------------|
D|----------------------------------|
A|----------------------------------|
E|----------------------------------|

Am C F (palm mute)
Have faith in me

[Chorus]

Am
I said I'd never let you go, and I never did
C
I said I'd never let you fall and I always meant it
F
If you didn't have this chance then I never did
G
You'll always find me right there, again

Am
I said I'd never let you go, and I never did
C
I said I'd never let you fall and I always meant it
F
If you didn't have this chance then I never did
G
You'll always find me right there, again

Am (palm mute)
I said I'd never let you go, and I never did
C (palm mute)
I said I'd never let you go, and I never did
F (palm mute)
I said I'd never let you go, and I never did
G (hold)
I said I'd never let you go, and I never did

If It Means A lot to you


CAPO ON THE 3rd FRET
STANDARD TUNING

[Verse]
Em G D Em
Hey darling, I hope you're good tonight
G D
And I know you don't feel right when I'm leaving
Em
Yeah, I want it but no, I don't need it
G D Em
Tell me something sweet to get me by
G D
'Cause I can't come back home 'til they're singin'

[Pre-Chorus]

C D Em
La, la la la, la la la
G D
'Til everyone is singin'

[Chorus]

G D
If you can wait 'til I get home
Em C
Then I swear to you that we can make this last (La la la)
G D
If you can wait 'til I get home
Em C
Then I swear come tomorrow, this will all be in our past
G D
It might be for the best

[Verse]

Em G D Em
Hey sweetie, I need you here tonight
G D
And I know that you don't wanna be leaving
Em
Yeah, you want it but I can't help it
G D Em
I just feel complete when you're by my side
G D
But I know you can't come home 'til they're singin'

[Pre-Chorus]

C D Em
La, la la la, la la la
G D
'Til everyone is singin'
C D Em
La, la la la, la la la

[Chorus]

G D
If you can wait 'til I get home
Em C
Then I swear to you that we can make this last (La la la)
G D
If you can wait 'til I get home
Em C
Then I swear come tomorrow, this will all be in our past
G D
It might be for the best

[Bridge]

C G
You know you can't give me what I need
Em
And even though you mean so much to me
D
I can wait through everything

Is this really happening?


C G
I swear I'll never be happy again
Em
And don't you dare say we can just be friends
D
I'm not some boy that you can sway

We knew it'd happen eventually

[Outro]

C D Em
La, la la la, la la la
G D
Now everybody's singin'
C D Em
La, la la la, la la la
G D
Now everybody's singin'
C D Em
If you can wait 'til I get home
G D
Now everybody's singin'
C D Em
Then I swear we can make this last
G D
Now everybody's singin'
C D Em
If you can wait 'til I get home
G D
Now everybody's singin'
C D Em
Then I swear we can make this last

If It Means A Lot To YouStarndard tuning

[Intro]

(background guitar Gm, Bb, F)

e|----------------------------------------------------|--3~-------------|
B|-1h3p1----1h3p1---------1h3p1-----------------------|-----------------|
G|-------3-0-----3-0-3-3-3------3-0-2-2-3-2-2-2-3-2-2-|-----------------|
D|----------------------------------------------------|-----------------|
A|----------------------------------------------------|-----------------|
E|----------------------------------------------------|-----------------|
x2 end on

[Verse 1]

Gm Bb F Gm
Hey darling, I hope you're good tonight
Bb F
And I know you don't feel right when I'm leaving
Gm
Yeah, I want it but no, I don't need it
Bb F Gm
Tell me something sweet to get me by
Bb F
'Cause I can't come back home 'til they're singin'

[Pre Chorus]

Bb(pm) F(pm) Gm(pm)


La, la la la, la la la
'Til everyone is singin'

[Chorus]

Bb F
If you can wait 'til I get home
Gm Eb F(optional)
Then I swear to you that we can make this last (La la la)
Bb F
If you can wait 'til I get home
Gm Eb
Then I swear come tomorrow, this will all be in our past
F(optional)
It might be for the best

[Instrumental]

(background guitar Gm, Bb, F)

e|----------------------------------------------------|--3~-------------|
B|-1h3p1----1h3p1---------1h3p1-----------------------|-----------------|
G|-------3-0-----3-0-3-3-3------3-0-2-2-3-2-2-2-3-2-2-|-----------------|
D|----------------------------------------------------|-----------------|
A|----------------------------------------------------|-----------------|
E|----------------------------------------------------|-----------------|
x2 end on

[Verse 2] (same as verse 1)

Hey sweetie, I need you here tonight


And I know that you don't wanna be leaving
Yeah, you want it but I can't help it
I just feel complete when you're by my side
But I know you can't come home 'til they're singin'
[Pre-Chorus]

Bb F Gm
La, la la la, la la la
Gm Bm
'Til everyone is singin'
Bb F Bb
La, la la la, la la la

[Chorus] (same as earlier)

If you can wait 'til I get home


Then I swear to you that we can make this last
(La la la)
If you can wait 'til I get home
Then I swear come tomorrow, this will all be in our past
It might be for the best

[Bridge]

Gm F
You know you can't give me what I need
Bb Bb Gm
And even though you mean so much to me
Gm F
I can wait through everything
F
Is this really happening?

(Palm mute)

Gm F
I swear I'll never be happy again
F Gm
And don't you dare say we can just be friends
F
I'm not some boy that you can sway
F
We knew it'd happen eventually

[Outro] (Electric guitar)

Bb F Gm
La, la la la, la la la
Now everybody's singin'
Bb F Gm
La, la la la, la la la
Now everybody's singin'
(If you can wait 'til I get home)
Bb F Gm
La, la la la, la la la
Now everybody's singin'
(Then I swear we can make this last)

La, la la la, la la la
Now everybody's singin'

If you can wait 'til I get home


Then I swear we can make this last
If It Means A Lot To You
[INTRO:]

Guitar 1

C/G G Gsus2
C/G G Gsus2

Guitar 2
e|-----------------------------3--3----------------------------------|
B|-----------------------------3--3----------------------------------|
G|--2h4--2p0-----2h4--2p0------0--0--2h4--2p0------------------------|
D|------------2------------2-------------------2---4-5-5-4-4--5-4----|
A|-------------------------------------------------------------------|
E|-------------------------------------------------------------------|

Guitar 3 (second time around)


e|----------------------------3--3-----------------------------------|
B|--1h3--3p1-----1h3--3p1-----3--3--1h3--3p1-------------------------|
G|------------0------------0--0--0------------0--2-4-4-2-2-4-4-2-2-0-|
D|-------------------------------------------------------------------|
A|-------------------------------------------------------------------|
E|-------------------------------------------------------------------|

[VERSE 1:]

Em/D G
And hey darling
Gsus2 Em/D
I hope you're good tonight
G Gsus2
And I know you don't feel right when I'm leaving
Em/D
Yeah I want it but no I don't need it
G Gsus2 Em/D
Tell me something sweet to get me by
C/G G
'Cuz I can't come back home till they're singing

C/G Gsus2 Em/D


La, la la la, la la la
G
'Til everyone is singing

[CHORUS:]

G Gsus2
If you can wait till I get home
Em/D
Then I swear to you
C/G
That we can make this last

(La la la)
G Gsus2
If you can wait till I get home
Em/D
Then I swear come tomorrow
C/G
This will all be in the past
G
Well it might before the best

[Bridge]

Guitar 1

C/G G Gsus2
C/G G Gsus2

Guitar 2
e|-----------------------------3--3----------------------------------|
B|-----------------------------3--3----------------------------------|
G|--2h4--2p0-----2h4--2p0------0--0--2h4--2p0------------------------|
D|------------2------------2-------------------2---4-5-5-4-4--5-4----|
A|-------------------------------------------------------------------|
E|-------------------------------------------------------------------|

Guitar 3 (second time around)


e|----------------------------3--3-----------------------------------|
B|--1h3--3p1-----1h3--3p1-----3--3--1h3--3p1-------------------------|
G|------------0------------0--0--0------------0--2-4-4-2-2-4-4-2-2-0-|
D|-------------------------------------------------------------------|
A|-------------------------------------------------------------------|
E|-------------------------------------------------------------------|

[VERSE 2:]

Em/D G
And hey sweetie
Gsus2 Em/D
Well I need you here tonight
G Gsus2
And I know that you don't want to be leaving me
Em/D
Yeah you want it but I can't help it
G Gsus2 Em/D
I just feel complete when you're by my side
C/G G
But I know you can't come home 'til they're singing

C/G Gsus2 Em/D


La, la la la, la la la
G
'Til everyone is singing
C/G Gsus2 G
La, la la la, la la la

[CHORUS]

G Gsus2
If you can wait till I get home
Em/D
Then I swear to you
C/G
That we can make this last

(La la la)
G Gsus2
If you can wait till I get home
Em/D
Then I swear come tomorrow
C/G
This will all be in the past
G c/G
Well it might before the best

[BRIDGE:]

C/G G
You know you can't give me what I need
Em/D
And even tho it means so much to me
Gsus2
I can't wait through everything

Is this really happening

C/G G
I swear I'll never be happy again
Em/D
And don't you dare say that we can just be friends
Gsus2
I'm not just some boy you can sway

We know what will happen eventually

[OUTRO:]

C/G Gsus2 Em/D


La, la la la, la la la
G
Now everybody's singing
C/G Gsus2 Em/D
La, la la la, la la la
G
Now everybody's singing
C/G Gsus2 Em/D
La, la la la, la la la
G
If you can wait til I get home
(Now everybody's singing)
C/G Gsus2 Em/D
Then I swear to you that we can make this last

C/G Gsus2 Em/D


La, la la la, la la la
G
Now everybody's singing
G
If you can wait til I get home

C/G Gsus2 Em/D


La, la la la, la la la
G
Now everybody's singing
C/G Gsus2 Em/D
Then I swear to you that we can make this last
C/G Gsus2 Em/D
La, la la la, la la la
G
Now everybody's singing

When 3S A Crowd
D Bm G throughout the song!
D Bm
I went to sleep thinking about you
G
And I woke up just the same
D Bm
You made it so hard for me
G
To close my eyes

D
Don't worry babe
Bm G
This will be alright
D
In the end
Bm G
And I'll be your everything

So we'll go tell ourselves


That this is for the best
But I'm depending on you
To lead me through

So try to stop those hands


You're riding down my neck
You touch, I tremble
You never were one to play fair

These past four walls won't be the only thing thats keeping me from you
This distance could never hold this back (I need you)
So lets just take this time and
We'll use its full reflection
And I'll see you in 3 days and
You'll think of me when you're next to him

Don't mind my gasping its just so much harder to breathe when you're near
You made it so hard for me to learn through my eyes
Don't mind my asking, but could it trouble you miss for a smile?
So grant me one last wish with a kiss
Its what my dreams are made of

So we'll go tell ourselves


That this is for the best
But I'm depending on you
To lead me through

So try to stop those hands


You're riding down my neck
You touch, I tremble
You never were one to play fair
These past four walls won't be the only thing thats keeping me from you
This distance could never hold this back (I need you)
So lets just take this time and
We'll use its full reflection
And I'll see you in 3 days and
You'll think of me when you're next to him

So here we are again


In the same situation
I'm screaming at the top of my lungs
And you're not saying a word

Did you just say what you mean?


Why can't you just mean what you said
When you said
No one could love you like me

These past four walls won't be the only thing thats keeping me from you
This distance could never hold this back (I need you)
So lets just take this time and
We'll use its full reflection
And I'll see you in 3 days and
You'll think of me when you're next to him

These past four walls won't be the only thing thats keeping me from you
This distance could never hold this back (I need you)
So lets just take this time and
We'll use its full reflection
And I'll see you in 3 days and
You'll think of me when you're next to him

When 3S A Crowd
These are the chords I hear

Dsus4 Bsus4 Gsus4 Asus4 B/G D/F#


|---0---------0---------0---------0---------0---------0---I
|---3---------3---------3---------3---------3---------3---I
|---2---------2---------2---------2---------2---------2---I
|---0---------0---------0---------2---------0---------4---I
|---x---------2---------x---------0---------0---------x---I
|---x---------x---------3---------x---------2---------x---I

Riff:

|---0--5p2--2--3p2----------------0--0---I
|---3---------------3--3--5s7--3--3--3---I
|---2-----------------------------2--2---I
|---0-----------------------------0--0---I
|---x-----------------------------0--0---I
|---x-----------------------------2--3---I

Riff is played twice to these words:

I went to sleep thinking about you


And I woke up just the same
You made it so hard for me to close my eyes
Verse:

Dsus4 B/G Gsus4


Don't worry babe, this will be alright in the end
Dsus4 B/G Gsus4
And I'll be your everything

Chorus:

Bsus4 Gsus4
So we'll both tell ourselves that this for the best
Bsus4 Asus4
But I'm depending on you to lead me through
Bsus4 Gsus4
So try to stop those hands, you're riding down my neck
Bsus4 Asus4 Gsus4
You touch, I tremble, you never were one to play fair

Refrain:

Dsus4 Asus4 D/F#


These past four walls won't be the only thing that's keeping me
Bsus4
from you
Gsus4
This distance could never hold this back (I need you)
Dsus4 Asus4 D/F#
So let's just take this time and we'll use this for reflection
Bsus4
And I'll see you in three days
Gsus4
And you'll think of me when you're next to him

Riff 2x

Verse:

Dsus4 B/G Gsus4


Don't mind my gasp, it's so much harder to breathe when you're near
Dsus4 B/G Gsus4
You made it so hard for me to learn through my eyes
Dsus4 B/G Gsus4
Don't mind me asking but could I trouble you, Miss, for a smile?
Dsus4 B/G Gsus4
Just give me one last wish with a kiss. It's what my dreams are

Chorus

Refrain

Bridge:

Dsus4 D/F# Gsus4


So here we are, again, in the same situation
Dsus4 D/F# Gsus4
I'm screaming at the top of my lungs, and you're not saying a word
Dsus4 D/F# Gsus4
Did you just say what you mean?
Why can't you can't you just mean what you said
Dsus4 D/F# Gsus4
When you said "No one can love you like me"?

Refrain 2x

Help us to improve Ultimate-Guitar.com Take our survey!


Author

Capo
ste_rigs 948
3rd fret
THE SCIENTIST (ACOUSTIC) - COLDPLAY
-----------------------------------

an incredibly simple but fantastic song to play on an acoustic guitar!

there seems to be a lot of confusion about the key of the song.


it does state below that a capo is required, but for those that don't have a
capo,
I have taken the liberty of putting a set of chords on which do not require a
capo
and will allow you to play along with the cd.

(CAPO ON 3RD FRET) (NO CAPO)

Bm7 (x20202) Dm7 (x57565)


G (320003) Bb (688766)
G * (320005)
D (xx0232) F (x,8,10,10,10,x)
Dsus2 (xx0230) Fsus2 (x,8,10,10,8,x)
Dmaj7 (xx0222)
A (x02220) C (x35553)
A7 (x02020) C7 (x35353)

[Intro]

| Bm7 | G G *| D | Dsus2 |
| Bm7 | G G *| D | Dsus2 |

[Verse 1]

Bm7 G G * D Dsus2
come up to meet you, tell you i'm sorry, you don't know how lovely you are
Bm7 G G * D Dsus2
i had to find you, tell you i ne-ed you, tell you i'll set you apart
Bm7 G G * D Dsus2
tell me your secrets and ask me your questions, oh lets go back to the start
Bm7 G G * D Dsus2
running in circles, coming in ta-les, heads are a science apart
[Chorus 1]

G G * D Dsus2
nobody said it was easy, it's such a shame for us to part
G G * D Dsus2 A
nobody said it was easy, no-one ever said it would be this hard
A7 ( D )
oh take me back to the start

[Interlude 1]

| D | G G *| D | D Dmaj7 |
| Bm7 | G | D | Dsus2 |

[Verse 2]

Bm7 G G * D Dsus2
i was just guessing at numbers and f--igures, pulling the puzzles apart
Bm7 G G * D Dsus2
questions of science, science and pr-ogress, do not speak as loud as my heart
Bm7 G G * D Dsus2
tell me you love me, come back and ha-unt me, oh and i rush to the start
Bm7 G G * D Dsus2 D
running in circles, chasing t--ales, coming back as we are

[Chorus 2]

G G * D Dsus2
nobody said it was easy, oh it's such a shame for us to part
G G * D Dsus2 A
nobody said it was easy, no-one ever said it would be so hard
A7 ( D )
i'm going back to the start

[Interlude 2]

| D | G | D | D |
| Bm7 | G | D | D |

[Outro]

Bm7 G D
oh - ooo-oo-oo-oo-ooo
Bm7 G D
ah - ooo-oo-oo-oo-ooo
Bm7 G D
oh - ooo-oo-oo-oo-ooo
Bm7 G D
oh - ooo-oo-oo-oo-ooo
The Scientist Chords
version 2
by Coldplay
[Intro]

Em7 C G D6

[Verse 1]

Em7 C G
Come up to meet you, tell you I'm sorry
D6
You don't know how lovely you are
Em7 C G
I had to find you, tell you I need you
D6
Tell you I set you apart
Em7 C G
Tell me your secrets, and ask me your questions
D6
Oh let's go back to the start
Em7 C G
Running in circles, coming up tails
D6
Heads on a science apart

[Chorus 1]

C G
Nobody said it was easy
D6
It's such a shame for us to part
C G
Nobody said it was easy
Gmaj7 D6
No one ever said that it would be this hard
D7
Oh take me back to the start

[Interlude]

G C G D6

[Verse 2]
Em7 C G
I was just guessing at numbers and figures
D6
Pulling the puzzles apart
Em7 C G
Questions of science, science and progress
D6
Don't speak as loud as my heart
Em7 C G
Tell me you love me, come back and haunt me
D6
Oh and I rush to the start
Em7 C G
Running in circles, chasing our tails
D6
Coming back as we are

[Chorus 2]

C G
Nobody said it was easy
D6
It's such a shame for us to part
C G
Nobody said it was easy
Gmaj7 D6
No one ever said that it would be this hard
D7
I'm going back to the start

[Outro]
G C G D6
Em7 C G D6

G C G D6
Em7 C G D6

G C G D6
Em7 C G D6
Suggest correction
THE CURE

Lovesong Chords
version 1
by The Cure

[Verse]

Am G F E
Whenever I'm alone with you
Am G F E
You make me feel like I am home again
Am G F E
Whenever I'm alone with you
Am G F E
You make me feel like I am whole again

[Instrumental]

Am G F E

[Verse]

Am G F E
Whenever I'm alone with you
Am G F E
You make me feel like I am young again
Am G F E
Whenever I'm alone with you
Am G F E
You make me feel like I am fun again

[Chorus]

F G
How ever far away
Am C
I will always love you
F G
How ever long I stay
Am C
I will always love you
F G
What ever words I say
Am C
I will always love you
F G Am
I will always love you

[Instrumental]
Am G F E

[Verse]

Am G F E
Whenever I'm alone with you
Am G F E
You make me feel like I am free again
Am G F E
Whenever I'm alone with you
Am G F E
You make me feel like I am clean again

[Chorus]

F G
How ever far away
Am C
I will always love you
F G
How ever long I stay
Am C
I will always love you
F G
What ever words I say
Am C
I will always love you
F G Am
I will always love you

"Lullaby"
The Cure

[Intro]

C#m A
e|-----------------------0-0-|2-2-4-----0-2-2-4----------|
B|--2--0-2-2-0-2---0-2-2-----|------2-----------2--2--0--|
G|---------------------------|---------------------------| x 2
D|---------------------------|---------------------------|
A|---------------------------|---------------------------|
E|---------------------------|---------------------------|

C#m A x 2

C#m A
e|-----------------------0-0-|2-2-4-----0-2-2-4----------|
B|--2--0-2-2-0-2---0-2-2-----|------2-----------2--2--0--|
G|---------------------------|---------------------------| x 2
D|---------------------------|---------------------------|
A|---------------------------|---------------------------|
E|---------------------------|---------------------------|
(You must play 6 times in total this C#m and A combination before the lyrics
begin)

[Verse]

C#m
On candystripe legs spiderman comes,
A
Softly through the shadow of the evening sun.
C#m
Stealing past the windows of the blissfully dead,
A
Looking for the victim shivering in bed.
C#m
Searching out fear in the gathering gloom,
A
And suddenly! A movement in the corner of the room!
C#m
And there is nothing I can do when I realise with fright
A
That the spiderman is having me for dinner tonight!

C#m A
e|-----------------------0-0-|2-2-4-----0-2-2-4----------|
B|--2--0-2-2-0-2---0-2-2-----|------2-----------2--2--0--|
G|---------------------------|---------------------------| x 2
D|---------------------------|---------------------------|
A|---------------------------|---------------------------|
E|---------------------------|---------------------------|

[Verse 2]

C#m
Quietly he laughs, and shaking his head
A
Creeps closer now, closer to the foot of the bed,
C#m
And softer than shadow and quicker than flies,
A
His arms are all around me and his tongue in my eyes...
C#m
"Be still, be calm, be quiet now, my precious boy,
A
Don't struggle like that, or I will only love you more,
C#m
For it's much too late to get away or turn on the light;
A
The spiderman is having you for dinner tonight!"

[Verse 3]

F#m
And I feel like I'm being eaten
A
By a thousand million shivering furry holes,
F#m
And I know that in the morning
A
I will wake up in the shivering cold...
C#m(*)
And the spiderman is always hungry...

[Instrumental]
(*) Begin to play the Intro tabs and chords.

C#m A
e|-----------------------0-0-|2-2-4-----0-2-2-4----------|
B|--2--0-2-2-0-2---0-2-2-----|------2-----------2--2--0--|
G|---------------------------|---------------------------| x 2
D|---------------------------|---------------------------|
A|---------------------------|---------------------------|
E|---------------------------|---------------------------|

[Ending]

C#m
THE CURE: DISINTEGRATION
Chords by Ney Young

Ok guys, this is a very simple chords version that Ive made for a The Cures
song
"Disintegration". Heres a
little tab that I play as the intro of the song:
E|--8-7-----5-3-----2----|----0----0-----0----0-----0----0-|
B|--------------------3--|--3---3--3---3---3--3---3---3--3-|

And then I play the sequence C D Em Em7, wich goes for all the song, with a
little
variation in one or two
verses, wich goes to Cmaj7 Dsus2 Em7 Em7.

I hope you like it!

C D Em Em7
Oh i miss the kiss of treachery the shameless kiss of vanity
C D Em Em7
The soft and the black and the velvety up tight against the side of me
C D Em Em7
And mouth and eyes and heart all bleed and run in thickening streams of greed
C D Em Em7
As bit by bit it starts the need to just let go my party piece

C D Em Em7 (2x)

C D Em Em7
Oh i miss the kiss of treachery the aching kiss before i feed
C D Em Em7
The stench of a love for a younger meat and the sound that it makes when it cuts
in deep
C D Em Em7
The holding up on bended knees the addiction of duplicities
C D Em Em7
As bit by bit it starts the need to just let go my party piece
C D Em Em7
But i never said i would stay to the end so i leave you with babies and hoping
for frequency
C D Em Em7
Screaming like this in the hope of the secrecy screaming me over and over and
over
C D Em Em7
I leave you with photographs pictures of trickery stains on the carpet and stains
on the scenery
C D Em Em7
Songs about happiness murmured in dreams when we both of us knew how the ending
would be ...

C D Em Em7 (2x)

Cmaj7 Dsus2 Em7


So it's all come back round to breaking apart again breaking apart like i'm made
up of
glass again
Cmaj7 Dsus2 Em7
Making it up behind my back again holding my breath for the fear of sleep again
Cmaj7 Dsus2 Em7
Holding it up behind my head again cut in deep to the heart of the bone again
Cmaj7 Dsus2 Em7
Round and round and round and it's coming apart again over and over and over

C D Em Em7
Now that i know that i'm breaking to pieces i'll pull out my heart and i'll feed
it to anyone
C D Em Em7
Crying for sympathy crocodiles cry for the love of the crowd and the three cheers
from everyone
C D Em Em7
Dropping through sky through the glass of the roof through the roof of your mouth
through the mouth of your eye
C D Em Em7
Through the eye of the needle it's easier for me to get closer to heaven than
ever feel
whole again

C D Em Em7
I never said i would stay to the end i knew i would leave you with babies and
everything
C D Em Em7
Screaming like this in the hole of sincerity screaming me over and over and over
C D Em Em7
I leave you with photographs pictures of trickery stains on the carpet stains on
the memory
C D Em Em7
Songs about happiness murmured in dreams when we both of us knew how the end
always is . ..

C D Em Em7 (until fade out)


How the end always is . . . (until fade out)

Help us to improve Ultimate-Guitar.com Take our survey!


Author
graph_sas 1,284
COLD
Words by: R.Smith Music by: The Cure published by: Fiction Records, 1982
Tabbed by: graph_sas@hotmail.com
----------------------------------------------------------------------------

This Tab is rectified and taken from my compilation of Pornography's chords


chart!
Thanks and enjoy ! ^^
SYNTH PROGRESSION CHORDS: C, C#, A#, G#, F, F#
GUITAR PROGRESSION CHORDS: Bm, G

Bm
Scarred

Your back was turned


G
Curled like an embryo
Bm
Take another face
G
You will be kissed again
Bm
I was cold as I mouthed the words
G
And crawled across the mirror
Bm
I wait
Await the next breath
G
Your name

Like ice into my heart

Main Riff: Bm, G (x2)

Bm
A shallow grave
G
A monument to the ruined age
Bm
Ice in my eyes
G
And eyes like ice don't move
Bm
Screaming at the moon
G Bm
Another past time
G
Your name
Like ice into my heart

Main Riff: Bm, G (x2)


Repeat the progression chord through the verse:

Everything as cold as life


Can no one save you?
Everything
As cold as silence
And you never say a word

Your name
Like ice into my heart (x2)

Help us to improve Ultimate-Guitar.com Take our survey!


Author

Difficulty
richk 2,420
novice
COLD
CURE
DADGAD tuning
Change tuner from 440 hz to 432 hz

A = 777600
G = 555600
D no 3rd = 000200
F = 333200

A G D F

A
Scarred
G
Your back was turned
D F
Curled like an embryo

A
Take another face
G
You will be kissed again
D
I was cold as I mouthed the words
F
And crawled across the mirror

A
I wait
G
Await the next breath
D
Your name
F
Like ice into my heart

A
A shallow grave
G D F
A monument to the ruined age

A
Ice in my eyes
G D F
And eyes like ice dont move

A
Screaming at the moon
G
Another past time
D
Your name
F
Like ice into my heart

A G
Everything as cold as life
D F
Can no one save you?

A
Everything
G
As cold as silence
D F
And you never say a word

A
Your name
G D F
Like ice into my heart
A
Your name
G D F
Like ice into my heart
Suggest correction

Help us to improve Ultimate-Guitar.com Take our survey!


Author
graph_sas 1,284
"A Night Like This" THE CURE
----------------------------------------------------------------------

The very best song of 1985s The Cure album The Head On the Door
E-mail me for anything: graph_sas@hotmail.com
Thanks and enjoy it!!

[Verse 1]

F#m D
Say goodbye on a night like this
B D
If it's the last thing we ever do
F#m D
You never looked as lost as this
B D
Sometimes it doesn't even look like you
F#m
It goes dark
D
It goes darker still
B D
Please stay
F#m D
But I watch you like I'm made of stone
B D
As you walk away

[Chorus]

C# B
I'm coming to find you if it takes me all night
C# B
A witch hunt for another girl
C# B
For always and ever is always for you
G#
Your trust
B F# D B D
The most gorgeously stupid thing I ever cut in the world

[Instrumental]

F# D B D

[Verse 2]

F# D
Say hello on a day like today
B D
Say it everytime you move
F# D
The way that you look at me now
B D
Makes me wish I was you
F#
It goes deep
D
It goes deeper still
B D
This touch
F# D
And the smile and the shake of your head
B D
And the smile and the shake of your head

[Chorus]

C# B
I'm coming to find you if it takes me all night
C# B
Can't stand here like this anymore
C# B
For always and ever is always for you
G# B
I want it to be perfect
D
Like before
B F# F# G# B D
Ohh Ohh Ohh I want to change it all
D B F#
Ohh Ohh Ohh I want to change
Song: A Night Like This
By: The Cure
Album: The Head on the Door

Transcribed by
Lee Cannon

For any comments or changes e-mail me


(cannonphoto@gmail.com)
-----------------------------------------------------------------------------

This version sounds nice on acoustic, hope you like it.

CHORDS: F#m (244222), D (xx0232), Dsus2 (xx0230),


B7 (x21202) or (x24242), C#m (x46654), Bm (x24432), Abm (466444), E (022300) A
(466544)

-----------------------------------------------------------------------------

Asus4 (x0775x)
INTRO: (optional): e|------------------0--|
B|--5-5-5-5-5-5-5-5-5--|
G|--6-7-6-7-6-7-6-7----| x2
D|--7-7-7-7-7-7-6-7--7-|
A|-------------------0-|
E|---------------------|

F#m D Dsus2 B7 D Dsus2 x4

F#m D Dsus2
Say goodbye on a night like this,

B7 D Dsus2
if it's the last thing we ever do

F#m D Dsus2
You never looked as lost as this,

B7 D Dsus2
sometimes it doesn't even look like you

F#m D Dsus2 B7 D Dsus2


It goes dark, it goes darker still, please stay

F#m D Dsus2 B7 D Dsus2


But I watch you like I'm made of stone, as you walk away

C#m Bm
I'm coming to find you if it takes me all night,

C#m Bm
a witch hunt for another girl

C#m Bm
For always and ever is always for you,

Abm E
Your trust, the most gorgeously stupid thing

F#m D Dsus2 B7 D Dsus2


I ever cut in the world

F#m D Dsus2 B7 D Dsus2

F#m D Dsus2 B7 D Dsus2


Say hello on a day like today, say it every time you move

F#m D Dsus2 B7 D Dsus2


The way that you look at me now, makes me wish I was you
F#m D Dsus2 B7 D Dsus2
It goes deep, it goes deeper still, this touch

F#m D Dsus2
And the smile and the shake of your head,

B7 D Dsus2
and the smile and the shake of your head

C#m Bm
I'm coming to find you if it takes me all night,

C#m Bm
can't stand here like this anymore

C#m Bm
For always and ever is always for you,

Abm E D Dsus2
I want it to be perfect, like before

E F#m F#m Abm A D


Ohh Ohh Ohh I want to change it all,

Dsus2 E F#m
Ohh Ohh Ohh I want to change

SOLO: F#m D Dsus2 B7 D Dsus2 x4

C#m Bm
I'm coming to find you if it takes me all night,

C#m Bm
can't stand here like this anymore

C#m Bm
For always and ever is always for you,

Abm E D Dsus2
I want it to be perfect, likes before

E F#m F#m Abm A D


Ohh Ohh Ohh I want to change it all,

Dsus2 E F#m
Ohh Ohh Ohh I want to change

E F#m F#m Abm A D


Ohh Ohh Ohh I want to change it all,

Dsus2 E F#m
Ohh Ohh Ohh I want to change

ENJOY!
SONG: Dead
ARTIST: Phoebe Ryan
KEY: C major (NO CAPO needed)

[VERSE 1]
C G G F
I've made mistakes, been dishonest
C G G F
Self-estranged, did what I wanted
C G G F
I was a fake, I slept just the same
C G G F
I'm not a saint, no, I'm not a saint

[PRE-CHORUS]
C Am7 G
Oh, no it doesn't make sense
C Am7 G
Oh, no I don't understand

[CHORUS]
C F
When things are good
I don't believe that they're for real
Am7 G
I really wish I could
just tell myself I gotta feel
C F
Feel something else instead
Cause lately life is like a dream
Am7 G
It's messing with my head
I must be dead

[VERSE 2]
C G G F
I've been a wreck, took things too far
C G G F
Made a mess, felt like a star
C G G (strum once)
I've broken hearts and goddamn I slept the same
C G G F
I'm not a saint, no, I'm not a saint

[PRE-CHORUS]
C Am7 G
Oh, no it doesn't make sense
C Am7 G
Oh, no I don't understand

[CHORUS]
C F
When things are good
I don't believe that they're for real
Am7 G
I really wish I could
just tell myself I gotta feel
C F
Feel something else instead
Cause lately life is like a dream
Am7 G
It's messing with my head
I must be dead

[BRIDGE]
C F
So, suddenly it's all picture perfect
Am7 G
Life is so good and I don't deserve it

[INSTRUMENTAL]
C F
Am7 G

[CHORUS]
C F
When things are good
I don't believe that they're for real
Am7 G
I really wish I could
just tell myself I gotta feel
C F
Feel something else instead
Cause lately life is like a dream
Am7 G
It's messing with my head
I must be dead

[OUTRO]
C F
I must be dead
Am7 G
I must be dead (I must be dead I don't believe it)
C F
I must be dead (I tell myself I could be dreaming)
Am7 G
I must be dead (I must be dead I don't believe it)

C F
Am7 G
C F
Am7 G

Phoebe Ryan - Dead Lyrics | MetroLyrics


Chords and tab by Sjoerd de Buck

Ignition Do You Chords


by Phoebe Ryan

Help us to improve Ultimate-Guitar.com Take our survey!


Author

Difficulty
Borkiz95 721
novice
|:| D Dmaj7 Bm G |:|
Repeat throughout the whole song.

D
No I'm not tryin' to be rude but hey pretty girl I'm feelin' you
Dmaj7
The way you do the things you do remind me of my Lexus Coup
Bm
That's why I'm all up in your grill tryin' getcha to a hotel
G
You must be a football coach the way you got me playin' the field

D
Now it's like "Murder She Wrote" once I get you out them clothes
Dmaj7
Privacy is on the door still they can hear ya screamin' more
Bm
Girl I'm feeling what you're feelin' no more hopin' and wishin'
G
I'm about to take my key and stick it in the ignition

D Dmaj7
Can I get a (toot toot) can I get a (beep beep)
Bm
Runnin' her hands through my 'fro bouncin' on 24's
G
While they say on the radio (oh oh oh)

D
Do you like drugs
Dmaj7
Do you like drugs (Yeah)
Bm
Well me too, Me too
G
Me too, Me too

D
Do you like love
Dmaj7
Do you like love (Yeah)
Bm
Well me too, Me too
G
Me too, Me too
D
Cristal poppin' in the stretch Navigator
Dmaj7
We got food everywhere as if the party was catered
Bm
We've got fellas to my left and honeys on my right
G
We bring them both together and we go drinkin' all night
D
Then after the show it's the after party
Dmaj7
And after the party it's the hotel lobby
Bm
And around about 4 you gotta clear the lobby
G
Then take it to your room and somebody

D
Do you like drugs
Dmaj7
Do you like drugs (Yeah)
Bm
Well me too, Me too
G
Me too, Me too

D
Do you like love
Dmaj7
Do you like love (Yeah)
Bm
Well me too, Me too
G
Me too, Me too

D
It's the remix to ignition hot and fresh out the kitchen
Dmaj7
Mama rollin' that body got every man in here wishin'
Bm
Sippin' on coke and rum I'm like so what I'm drunk
G
It's the freakin' weekend baby I'm about to have me some fun

It's the remix to ignition hot and fresh out the kitchen
Mama rollin' that body got every man in here wishin'
Sippin' on coke and rum I'm like so what I'm drunk
It's the freakin' weekend baby I'm about to have me some fun

D
Do you like drugs
Dmaj7
Do you like drugs (Yeah)
Bm
Well me too, Me too
G
Me too, Me too

D
Do you like love
Dmaj7
Do you like love (Yeah)
Bm
Well me too, Me too
G
Me too, Me too

(Repeat D Dmaj7 Bm G till fade)

Yeah (Bounce Bounce Bounce Bounce Bounce)


Yeah (Bounce Bounce Bounce)
Yeah (Bounce Bounce Bounce Bounce Bounce)
Yeah (Bounce Bounce Bounce)
Yeah (Bounce Bounce Bounce Bounce Bounce)
Yeah (Bounce Bounce Bounce)
Yeah (Bounce Bounce Bounce Bounce Bounce)
Yeah (Bounce Bounce Bounce)

LACRIMOSA THE PARTY IS OVER

Help us to improve Ultimate-Guitar.com Take our survey!


Author

Difficulty
konde-kun 21
intermediate
A A7
I lost you in the morning
F# Bm
When the snow felt in our world
G Cm
I lost you in the cold
Ab C#m
Between these shades of our illusions
A A7
I found an empire of love and pain
F# Bm
Within this kiss - this kiss goodbye
G
For I will never
Cm
Forget your face
Ab
Behind the window
C#m
Of this parting train.

C#m G#
C#7 A#
D#m A#
A#7 D#m

C#m
I asked the moon
G#
To bring you back into my arms
C#7 A#
I called the wind to guide your way
D#m A#
I begged the earth to hold you tight
Keep you from harm
A#7 D#m
I send you kisses in my dreams
C#m
For I know
G#
We had our time
G#m
I close the door
G# C#m
The party is o.....ver

A A7
Imposing our love
F# Bm
Through all the years we have to face
G Cm
Now I am on my own
G# C#m
Passing through these fields of memories
A A7
All these visions of my temple dream
F# Bm
I sacrifice my everything
G
For I will never
Cm
Forget your face
G#
Behind the window
C#m
Of this parting train

C#m G#
C#7 A#
D#m A#
A#7 D#m

C#m
I asked the moon
G#
To bring you back into my arms
C#7 A#
I called the win to guide your way
D#m A#
I begged the earth to hold you tight
Keep you from harm
A#7 D#m
I send you kisses in my dreams

C#m
I asked the moon
G#
To bring you back into my arms
C#7 A#
I called the win to guide your way
D#m A#
I begged the earth to hold you tight
Keep you from harm
A#7 D#m
I send you kisses in my dreams

C#m
For I know
G#
We had our time
G#m
I close the door
G# Cm
The party is o.....ver

Help us to improve Ultimate-Guitar.com Take our survey!


Author

Difficulty
FedoraMcMan 130
intermediate
(Credits to daniss1015000 for tabbing out the intro)

I apologize in advance if anything is entirely confusing, it makes sense in my


head.

This song has been tabbed already, but the chords were incorrect,
I also decided to publish this as Chords because the majority of the song is
chords.

As for the [Variations] labels and most of the chords themselves,


Ultimate-Guitar can display chords but not the exact ones used in certain
instances.
Whenever [Variations] is present, play the chords as specified.

Sinematic (Acoustic)
Motionless in white - Reincarnate

Intro:
Cmaj7 Em Cmaj7 Em
E|--------------------------------------------------------------------0---|
B|-----------1-----1p0--------------0------------1-----1p0----------------|
G|---------0---0--------0---------0------------0---0--------0-------------|
D|-------2-------2--------2-----2------------2-------2--------2-----2-----|
A|-----2--------------------2-3------------2--------------------2-3-------|
E|---0-----------------------------------0--------------------------------|
Cmaj7 Em Cmaj7 Em C
E|----------------------------------------------------------------0-|
B|-----------1-----1p0--------------0------------1-----1p0--------1-|
G|---------0---0--------0---------0------------0---0--------0-----0-|
D|-------2-------2--------2-----2------------2-------2--------2---2-|
A|-----2--------------------2-3------------2--------------------2-3-|
E|---0-----------------------------------0------------------------0-|

Verse I:
[Variations]
Em Esus2
E|----3------2----|
B|----0------0----|
G|----0------x----|
D|----2------4----|
A|----2------2----|
E|----0------0----|

Em
The wall that I have built to keep you out is starting to rust
Esus2
Because everything around me just reminds me of us.
Em
I am an addict for dramatics, black hair and pale skin.
Esus2
Yet I'm still collecting bones, but that's why closets are for skeletons

Pre-Chorus I:
[Variation]
Emadd9
E|---2----|
B|---0----|
G|---0----|
D|---2----|
A|---2----|
E|---0----|

Em Emadd9
Undress your body, hold it over my head
Em
Because you know that if you knock then
Em Emadd9
I'll always let you in
Em Emadd9
I've been numb for so long that I forgot how to feel
Em Emadd9
Just fuck me till we disappear

Chorus:
Em
You said you'd never hurt me
Esus2
Now this is all that we have left
Cadd9 G Gsus2
You were supposed to save me
Em
From myself

(Repeat Intro Riff)

Verse II:
[Variations]
Em
The wall that I have built to keep you out has crumbled to dust
Esus2
And I hope that everything you see reminds you of us

Pre-Chorus II:
[Variations]
Em Emadd9
I've been gone for so long that I forgot what is real
Em Emadd9
So I don't care if I will miss you, please just fuck me till we disappear

Chorus:
Em
You never said you'd hurt me
Esus2
Now this is all that we have left
Cadd9 G Gsus2
You were supposed to save me
Em
From myself
Em
You said you'd never love me
Esus2
But look how hard someone can fall
Cadd9 G Gsus2
I was supposed to save you
Em
From yourself

Bridge:
[Variations]
E|----0----0----0----0----0----0----0----0----0----0----3----3----|
B|----0----0----0----0----0----0----0----0----0----0----3----3----|
G|----0----9----7----9----7----9----7----5----4----5----0----2----|
D|----2----9----7----9----7----9----7----5----4----5----0----0----|
A|----2----7----5----7----5----7----5----3----2----3----2----0----|
E|----0----0----0----0----0----0----0----0----0----0----3----3----| x2
Em E5 E7sus4 E5 E7sus4 E5 E7sus4 Cmaj7 Esus2 Cmaj7 G Gsus2

Em (let ring) E5 (let ring)

Em
Now the sky is on fire and we lie wide awake
E7sus4
There is no other way than to make this mistake
Cmaj7 G Gsus2 Em
We can't control who we hurt so we fuck the pain away
Em
So put all of your pride, all your guilt into me
E7sus4
And suck the breath from my lungs and I'll swallow your hate
Cmaj7 G Gsus2 Em
We can't control how we hurt so we fuck the pain away

Outro:
Cmaj7 Em Cmaj7 Em
E|--------------------------------0---------0----------|
B|-----------1-----1p0-----------0-----------0---------|
G|---------0---0--------0-------0-------------0--------|
D|-------2-------2--------2----2---------------2-------|
A|-----2--------------------2-3-----------------2------|
E|---0-------------------------------------------0-----|

Questions, Comments, Concerns, I'll take any and all feedback

SINEMATIC

Help us to improve Ultimate-Guitar.com Take our survey!


Author

Difficulty
daniss1015000 41
novice
This is What I picked up learning it from ear. This is my first song learning by
ear,
but it sounds pretty close.
If anything seems off, feel free to comment and tell me. Thanks. Hope it works
for you.

Chords- (Some aren't the real names of the chords, but thats what I'm naming
them.
C Em Bm3 Bm5 Bm7 Am9 Amsus9 G Gsus4
E| 0 0 0 0 0 0 0 3 3
B| 1 0 0 0 0 8 7 3 3
G| 0 0 5 7 9 9 9 0 2
D| 2 2 5 7 9 9 9 0 0
A| 3 2 3 5 7 x x 2 0
E| 0 0 x x x x x 3 2

Intro:

E|--------------------------------------------------------------------0---|
B|-----------1-----1p0--------------0------------1-----1p0----------------|
G|---------0---0--------0---------0------------0---0--------0-------------|
D|-------2-------2--------2-----2------------2-------2--------2-----2-----|
A|-----2--------------------2-3------------2--------------------2-3-------|
E|---0-----------------------------------0--------------------------------|

E|----------------------------------------------------------------0-|
B|-----------1-----1p0--------------0------------1-----1p0--------1-|
G|---------0---0--------0---------0------------0---0--------0-----0-|
D|-------2-------2--------2-----2------------2-------2--------2---2-|
A|-----2--------------------2-3------------2--------------------2-3-|
E|---0-----------------------------------0------------------------0-|

Verse:
Down strum quarter notes

Am7
The wall that I have built to keep you out is starting to rust
Amsus7
Because everything around me just reminds me of us.
Am7
I am an addict for dramatics, black hair and pale skin.
Amsus7
Yet I'm still collecting bones, but that's why closets are for skeletons

Pre-chorus:
Down strum Eighth notes

Am Amsus7
Undress your body, hold it over my head
Am
Because you know that if you knock then
Amsus7
I will always let you in
Am7 Amsus7
I've been numb for so long that I forgot how to feel
Am7
So I don't care if it will break my heart,
Amsus7
Just fuck me till we disappear

Chorus:
You'll just have to listen to get strumming pattern. Or create your own.

Em
You said you'd never hurt me
Bm5
Now this is all that we have left
Bm3 G Gsus4
You were supposed to save me
Em
From myself

E|----------------------------------------------------------------0-|
B|-----------1-----1p0--------------0------------1-----1p0--------1-|
G|---------0---0--------0---------0------------0---0--------0-----0-|
D|-------2-------2--------2-----2------------2-------2--------2---2-|
A|-----2--------------------2-3------------2--------------------2-3-|
E|---0-----------------------------------0------------------------0-|

Verse:
Down strum quarter notes

Am7
The wall that I have built to keep you out has crumbled to dust
Amsus7
And I hope that everything you see reminds you of us

Pre-chorus
Down strum eighth notes

Am7 Amsus7
I've been gone for so long, I forgot what is real
Am7 Amsus7
So I don't care if I will miss you, please just... til' we disappear

Chorus:
You'll just have to listen to get strumming pattern. Or create your own.

Em
You never said you'd hurt me
Bm5
Now this is all that we have left
Bm3 G Gsus4
You were supposed to save me
Em
From myself
Em
You said you'd never love me
Bm5
But look how hard someone can fall
Bm3 G Gsus4
I was supposed to save you
em
From yourself

Bridge: (x2)
em - bm9 - bm7 - bm9 - bm7 bm9 - bm7 - bm5 - bm3 - em - bm5 - g - gsus4

em

em
Now the sky is on fire and we lie wide awake
bm5
There is no other way than to make this mistake
bm3 G Gsus4 em
We can't control who we hurt so we... the pain away
em
So put all of your pride, all your guilt into me
bm5
Suck the breath from my lungs and I'll swallow your hate
Bm3 G Gsus4
Can't control how we hurt so we... the pain away

E|-------------------------------------0-|
B|-----------1-----1p0--------------0----|
G|---------0---0--------0---------0------|
D|-------2-------2--------2-----2--------|
A|-----2--------------------2-3----------|
E|---0-----------------------------------|

Up strum an Em to finish the song.