Sei sulla pagina 1di 3

Intro:

e|-----------3--|-----------3--|-----------3--|----------|
B|-----1--------|-----1--------|-----0--------|----------|
G|--2-----2-----|--2-----2-----|--0-----0-----|----------|
D|--------------|--------------|--------------|----------|
A|--------------|--------------|--------------|----------|
E|--------------|--------------|--------------|----------|

Verse 1:
e|-----------3--|--5--3--|-----------3--|----------|
B|-----1--------|--------|-----0--------|----------|
G|--2-----2-----|--------|--0-----0-----|----------|
D|--------------|--------|--------------|----------|
A|--------------|--------|--------------|----------|
E|--------------|--------|--------------|----------|

e|-----------3--|-------------|-----------3--|----------|
B|-----1--------|-------------|-----0--------|----------|
G|--2-----2-----|-------------|--0-----0-----|----------|
D|--------------|-------------|--------------|----------|
A|--------------|--3/5--3--0--|--------------|----------|
E|--------------|-------------|--------------|----------|

Chorus 1:
e|--8--8-------------10--|--8--8-------------10-|--7--7-----------10--|
B|--------10-----10------|--------10-----10-----|--------8-----8------|
G|------------9----------|------------9---------|-----------9---------|
D|-----------------------|----------------------|---------------------|
A|-----------------------|----------------------|---------------------|
E|-----------------------|----------------------|---------------------|

e|--7--7-----------7--|
B|--------8-----8-----|
G|-----------9--------|
D|--------------------|
A|--------------------|
E|--------------------|

Verse 2:
e|-----------0--------|-----------0--|-----------3--|
B|-----1--------3--1--|-----1--------|-----0--------|
G|--2-----2-----------|--2-----2-----|--0-----0-----|
D|--------------------|--------------|--------------|
A|--------------------|--------------|--------------|

Chorus 2 (2x)
e|-----------0--------|-----------0-----|-----------3--------|
B|-----1--------3--1--|-----1--------1--|-----0--------3--1--|
G|--2-----2-----------|--2-----2--------|--0-----0-----------|
D|--------------------|-----------------|--------------------|
A|--------------------|-----------------|--------------------|
E|--------------------|-----------------|--------------------|

e|-----------3--|
B|-----1--------|
G|--2-----2-----|
D|--------------|
A|--------------|
E|--------------|
Em C D C

Em C
Gli occhi fanno quel che possono
D C
niente meno e niente più
Em C
tutto quello che non vedono
D C
è perché non vuoi vederlo tu

Em C
Cosa vuoi che sia passa tutto quanto
G D
Solo un po' di tempo e ci riderai su
Em C
cosa vuoi che sia ci sei solo dentro
G D Em C D C
pagati il tuo conto e pensaci tu

Em C
E’ la vita in cui abiti
D C
niente meno e niente più
Em C
sembra un posto in cui si scivola
D C
ma queste cose le sai meglio tu

Em C
Cosa vuoi che sia passa tutto quanto
G D
Solo un po' di tempo e ci riderai su
Em C
cosa vuoi che sia ci sei solo dentro
G D
pagati il tuo conto e pensaci tu

Em C D C
chi ama meno è meno fragile tutti dicono così
Em C D C
ma gli occhi fanno quel che devono solo tu puoi non accorgerti
Em C
è il mondo che ti dice tu pensa alla salute
D C
che c'è chi pensa a quello a cui non pensi tu
Em C
è il mondo che ti dice tu pensa alla salute
D C
che c'è chi pensa a quello a cui non pensi tu

Em C
Cosa vuoi che sia passa tutto quanto
G D
Solo un po' di tempo e ci riderai su
Em C
cosa vuoi che sia ci sei solo dentro
G D
pagati il tuo conto e pensaci tu

Em C G D
E’ il mondo che ti dice tu pensa alla salute ehh ehh
Em C G D
E’ il mondo che ti dice tu pensa alla salute ehh ehh