Sei sulla pagina 1di 5

SEX|

|---|

GRAZIE A RED

La Re Fa#m Mi La Re Fa#m Mi

------|-------------------|-------------4-------------------------|------------
------|---5-------5-------|---5-----------5-5-----5-------5-------|---5-----5--
--2-4-|/6---4-(4)---4-2-4/|-6---4-4-(4)-------4/6---4-(4)---4-2-4/|-6---4-4--4-X 2
4-----|-------------------|---------------------------------------|------------
------|-------------------|---------------------------------------|------------
------|-------------------|---------------------------------------|------------

La Re Re La

--------------------------|
---------5-3-(3)-3--------|
-2-(4)/6---2-(2)-2--2-(2)-|
-----------0-(0)-0--2-(2)-|
--------------------0-(0)-|
--------------------------|

La Mi/La Re

Fare sesso nascosti in un cesso fumarsi una Marlboro dopo l'amplesso oppure

farlo in

----------------------------------------------|---------------------------------
----------------------------------------------|-3-----------3----(3)p2-2--------
-----2-----------------1----(1)---2-----------|-2-2---------2----(2)------------
-----------------------2----(2)----------0----|-0----0------0----(0)------------
--------------0-------------------------------|-----------------------------0---
----------------------------------------------|---------------------------------

La Mi/La Re

macchina di fianco alla strada buscarsi un raffreddore male che vada

sentirsi un po'

----------------------------------------------|---------------------------------
-----|
----------------------------------------------|---3---------3----(3)-
2---------------|
-2------------------1------(1)----2-----------|---2--2------2----(2)----
2------------|
-2----2-------------2------(2)----2--------0--|---0----0----0----
(0)--------------2--|
-0----------0------------------
0--------------|--------------------------------------|
----------------------------------------------|---------------------------------
-----|

Sim Re La
animale, un po' primitivi sentire che respiri, sentire che vivi.

-------------------------------------|------------
2--------------------|---------------
------------3----------------3----0--|--3---------3---------------3--
0-|----------5----
---4--------4----------------4----0--|--2---------2---------------2--2-|-
2(4)/6--------
---4--------4----------------4----0--|--0---------0---------------0--
0-|---------------
---2--------2----------------
2-------|---------------------------------|---------------
-------------------------------------|---------------------------------|--------
-------

Re Re La

--------------------|
--3-(3)-3-3---------|
--2-(2)-2-2---2-(2)-|
--0-(0)-0-0-0-2-(2)-|
--------------0-(0)-|
--------------------|

La Mi/La Re

E convincere i tuoi ad andare in vacanza spedirli un giorno al mare e farlo

in ogni stanza

La Mi/La Re

provare le ricette, collaudare la cucina usare la Nutella, usare la farina

Sim Re

gardare il suo corpo e scoprirne la forma sentire dei passi... e qualcuno

che torna....

----------------|---------------------------------------|-----------------
2---------2----|
----------------|---------------------------------------|-3---------------
3---------3----|
----------------|-4---------4----2----(2)----4----------|-2---------------
2---------2-2-4|
----------------|-4---------4----2----(2)----4----0-----|-0----------
0-------------------|
----------------|-2---------2-------------
2-------------|--------------------------------|
----------------|---------------------------------------|-----------------------
---------|

Riff. iniziale

La Mi/La Re

Fare sesso, succhiarne la polpa e via la vergogna e i sensi di colpa


sdraiarsi sulla

La Mi/La Re

sabbia, rotolarsi nel fango carezzarne le gambe, improvvisarsi in un tango

annusarne la

Sim Re

pelle,scoprirne l'odore passare dal sesso a fare l'amore... E

La Mi Fa#m Re La Mi

Re Mi

altro che l'America... altro che la musica... quando sei selvatica... altro

che l'America

----------------------|----------------------|-------------------------|2-----
2-----------|
----------------------|-------------3--------|----------------------X-X|3-----
3-----------|
----------------------|-------------2---2--2-|--------------------1-X-X|2-----
2--------2-4|
-------------------2--|------4------0-2----0-|2---2--2--2---2-----2-X-X|0-----
0------2----|
7--7--7--7-------2---2|4-4-----4-------------|0---0--0--0---2--2--
2----|-------------2----|
5--5--5--5----0-------|2---------------------|--------------
0----------|-------------0----|

La Mi Fa#m Mi La Mi Fa#m Mi che l'America! E

-------------------------|----------------
4---------|----------------------|-------------|
----5----------5---------|---5---------------5--5---|---5--------5---------|---
5----5----|
/6-----4--(4)-----4--2--4/6-----4--4-(4)-----------4/6----4-(4)-----4--2--
4/6----4-----4-|
-------------------------|--------------------------|----------------------|----
---------|
-------------------------|--------------------------|----------------------|----
---------|
-------------------------|--------------------------|----------------------|----
---------|

Re2 Re Mi

vivere una notte lunga una vita e avere il suo profumo ancora tra le dita

svegliarsi

------------------------------------------------|-------------------------------
-----------3------------------------------------|-------------------------------
-----------2------------------------------------|-------------------------------
-----------0------------------------------------|-2-----------------------------
------------------------------------------------|-2-----------------------------
------------------------------------------------|-0-----------------------------
Sim11 Re2 Mi

affamati e rifarlo per ore passare dal sesso a fare l'amore E

---------------------------------------|-----------------------0----------------
---------------------------------------|-3---------------------0----------------
----2----------------------------------|-2---------------------1----------------
----2----------------------------------|-0--------------2---2--2----------------
----0----------------------------------|----------------2---2--2----------------
---------------------------------------|----------------0---0--0----------------

La Mi Fa#m Re La Mi Re

Mi

altro che l'America... altro che la musica... quando sei selvatica... altro

che l'America

----------------------|----------------------|-------------------------|2-----
2-----------|
----------------------|-------------3--------|----------------------X-X|3-----
3-----------|
----------------------|-------------2---2--2-|--------------------1-X-X|2-----
2--------2-4|
-------------------2--|------4------0-2----0-|2---2--2--2---2-----2-X-X|0-----
0------2----|
7--7--7--7-------2---2|4-4-----4-------------|0---0--0--0---2--2--
2----|-------------2----|
5--5--5--5----0-------|2---------------------|--------------
0----------|-------------0----|

che l'America!

-------------------------|----------------
4---------|----------------------|-------------|
----5----------5---------|---5---------------5--5---|---5--------5---------|---
5----5----|
/6-----4--(4)-----4--2--4/6-----4--4-(4)-----------4/6----4-(4)-----4--2--
4/6----4-----4-|
-------------------------|--------------------------|----------------------|----
---------|
-------------------------|--------------------------|----------------------|----
---------|
-------------------------|--------------------------|----------------------|----
---------|

Re Mi Re Mi

---0-----2(2)0------|--0---0------0------|--0-----2(2)-0------|--0---0------
0------------|
--------------------|--------------------|--------------------|-----------------
---------|
/6---4-2-------1-2-4/6---4---2(2)---1-2-4/6---4-2--------1-2-4/6---4---2(2)---1-
2-4------|
--------------------|--------------------|--------------------|-----------------
---------|
--------------------|--------------------|--------------------|-----------------
---------|
--------------------|\-------------------|--------------------|-----------------
---------|

Sim Re Mi La5

-----0-----0-----0-----0------|----0-----0-----0-----0--------||
------------------------------|-------------------------------||
-4/6---4/6---4/6---4/6---6\4-2|4/6---4/6---4/6---4/6---6\4--2-||
------------------------------|-----------------------------2-||
------------------------------|-----------------------------0-||
------------------------------|\------------------------------||