Sei sulla pagina 1di 3

Il mio malditesta - guitar tablature by KeL

original song of Bluvertigo

legenda:

x => suonare le corde poggiando il palmo della mano su di esse


h => hammer on

Intro

-0----0-----------1-----0--0----2h3-2-0-
-2----2-----------1-----2--2----3---3-3-
-2----2---x-x-x---2-----2--2----2---2-2-
-2----2---x-x-x---3-----2--2------------
-0----0---x-x-x---3-----0--0------------
----------------------------------------
\--------------------------/
figura ritmica 1

ripeti figura ritmica 1

-0----0-----------1-----0--0----2h3-2-0-
-2----2-----------1-----2--2----3---3-3-
-2----2---x-x-x---2-----2--2----2---2-2-
-2----2---x-x-x---3-----2--2------------
-0----0---x-x-x---3-----0--0------------
---------------------------------------- 2 volte

1a strofa
(sono indicati gli accordi che seguono la linea del basso)

MI FA MI RE
La televisione che osser-vo a casa serve solo per il mio malditesta
MI FA MI RE
Tor-nare da Milano all'ora di punta serve solo per il mio malditestaaaa...

MI FA MI RE

(sempre questo giro)

Amo molto il rumore per� la techno serve solo per il mio malditesta
E' bello l'amore ma una ragazza pu� solo aumentare il mio maldistesta

Pre-Ritornello
(sono indicati gli accordi, da suonare distorti, solo le note pi� gravi)

MI SOL
E allora vado, comincio a cercare, aprire i cas-setti del comodino,
FA#
o quelli del bagno piccolo, devo ri-solvere il problema, o credere
-
di risolverlo (per� Giove ha cagato fuori Minerva da un'emicrania)

Ritornello
(indicati gli accordi, da suonare lievementi distorti)
FA#- FA FA#- SI
Ho bisogno di pillole che facciano pas-sare il mio maldi-testa

LA FA LA RE
Ho bisogno di pillole che facciano pas-sare il mio maldi-testa

-0----0-----------1-----0--0----2h3-2-0-
-2----2-----------1-----2--2----3---3-3-
-2----2---x-x-x---2-----2--2----2---2-2-
-2----2---x-x-x---3-----2--2------------
-0----0---x-x-x---3-----0--0------------
----------------------------------------

-0----0-----------1-----0--0------2--2--
-2----2-----------1-----2--2--x-x-3--3--
-2----2---x-x-x---2-----2--2--x-x-2--2--
-2----2---x-x-x---3-----2--2------------
-0----0---x-x-x---3-----0--0------------
----------------------------------------

2a strofa

Le lezioni che subisco a scuola

(stesso giro di prima)


servono solo per il mio malditesta
mi piace la bravura ma a volte il jazz, serve solo per il mio malditesta
non odio il calcio, ma chi ne abusa, serve solo per il mio malditesta
e spesso di sera se non digerisco accuso leggeri principi di maldistesta

ripeti Pre-Ritornello

ripeti Ritornello

Interlude

-----------------------------------------------------------------
-----------------------------------------------------------------
-----------------------------------------------------------------
-------------------------------------------------4-4-4-4-4-4-4-4-
-2-2-2-2-2-2-2-2-5-5-5-5-5-5-5-5-4-4-4-4-4-4-4-4-2-2-2-2-2-2-2-2-
-0-0-0-0-0-0-0-0-3-3-3-3-3-3-3-3-2-2-2-2-2-2-2-2-----------------

il pezzo seguente, � indicato con gli accordi corrispondenti

LA (credo per 5 battute)


FA#- LA FA SI
FA#- LA SI

ripeti ritornello (solo il 2o verso!)

FA#- FA FA#- SI

ripeti ritornello (solo il 2o verso!)

Finale

-----------------------||
-----------------------||
-----------------------||
-7-7--7-7----3-3---3---||
-7-7--7-7----3-3---3---||
-5-5--5-5----1-1---1---||