Sei sulla pagina 1di 4

Now We Are Free

Gladiator
Arranged by Isac Saleh
Composed by Hans Zimmer
Standard tuning: EADGBE

E E E E E E E E
E E E E E E E E
E||--------------------------|--------------------------|
B||--2-----2-----0-----0-----|--2-----2-----3-----3-----|
G||-----2-----2-----2-----2--|-----2-----2-----2-----2--|
D||--------------------------|--------------------------|
A||--0-----------------------|--0-----------0-----------|
E||--------------4-----------|--------------------------|
E E E E E E E E
E E E E E E E E
--------------------------|--0-----------0-----------|
--2-----2-----0-----0-----|--2-----2-----0-----0-----|
-----2-----2-----2-----2--|-----2-----2-----2-----2--|
--------------------------|--------------0-----------|
--0-----------------------|--0-----------------------|
--------------4-----------|--------------------------|
E E E E E E E E
E E E E
Q.
S S H
--0-----------0-----------|--------------|----------------------|
--0-----0-----0-----0-----|--0-----0-----|-----------0-0--------|
-----2-----2-----2-----2--|-----2-----2--|--2-------------------|
--0-----------0-----------|--0-----------|----------------------|
--------------------------|--------------|--0------L---2--------|
--------------------------|--------------|----------------------|
E E E S S Q.
S S
E. S E E H
H
Q.
E
--------------------------|------------------------|---------------------|
-----------0-3--------L-2-|--3---2p-0--------------|---------------------|
-----2--2-----------------|------------2-----------|------------------1--|
---------------0----------|--2---------------------|---------------------|
--4-----------------------|------------------------|---------------------|
--------------------------|---------------0--------|--2--------4---------|
|--3-|
H
S S S Q
S S
H
E E E E
E Q.
H
---------------------------|---------------------0--|-----0---------------|
-------------0h-2-3----L-2-|--3-----------2p--0-----|---------------------|
--2--------2---------------|------------------------|---------------------|
---------------------------|-----------0------------|--2------------------|
--0--------2---------------|--4---------------------|---------------------|
---------------------------|------------------------|------------0--------|
Q
S S E H
Q
E E H
E. E. E
--0----------------------|-----------------------|------2---5--|
-------3p-2p-0-----------|-----------------------|--2----------|
----------------2--------|-------1--2--2~--------|-------------|

-------------------------|-----------------------|-------------|
-------------------------|-----------------------|-------------|
--0-------------2--------|--4----------2---------|-------------|
H.
Q
H
E. E. E H.
Q
-----------------------------|----------0--------------------|
--0--------------------------|--0---2------------------------|
---------------2----1--------|-------------2------------1----|
--------------------2--------|-------------------------------|
--2--------------------------|-------------------------------|
-----------------------------|-------------2-----------------|
H
E. E. E
H.
Q
H
---------------2---5--|-----------------------------|
-----------2----------|--0--------------------------|
----------------------|---------------2----1--------|
--4-------------------|--------------------2--------|
--5-------------------|--2--------------------------|
----------------------|-----------------------------|
E. E. E H
E. E. E
E. E. E
------------------------------2--|------2---5--|
--------------------------2------|--2----------|
--1-------------------2----------|-------------|
------4---2--4-------------------|-------------|
---------------------------------|-------------|
-------------2-------------------|-------------|
H.
E. T T H
E. E. E H.
E. T T
--5~------------5---7p-5-4--------|----------0--5~------------4---5p-4-|
--0-------------------------------|--0---------------------------------|
----------------------------------|------6------2----------------------|
----------------7--------6--------|---------------------------6--------|
--2----------------------7--------|------------------------------------|
----------------------------------|-------------2----------------------|
H
E. E. E
H.
E. T T H
--2------------2---5--|--7~------------5---7p-5-4--------|
-----------2----------|--0-------------------------------|
----------------------|----------------------------------|
--4-------------------|----------------7--------6--------|
--5-------------------|-------------------------7--------|
----------------------|--7-------------------------------|
E. E. E H
H
H
E S E S E
S E S Q
--4---2---0--2--------0--------|--L--------||---5--4-2--0-0--|-------0-0----|
-------------------------------|-----------||----------------|--3-3---------|
----------------------2--------|--L--------||*---------------|--------------|
--6---4---2--4-----------------|-----------||*---------------|--------------|
-------------------------------|-----------||---0------------|--2-----------|
-------------2-----------------|-----------||----------------|--------------|
E S E S E

S E S E E

E S E S E

S E S Q

E S E S E

--5--4-2--0-0--|---------------|--5--4-2--0-0--|-------0-0----|--5--4-2--0-0--|
---------------|--3-3--2-0-----|---------------|--0-----------|---------------|
---------------|------------2--|--2------------|--7-7---------|--6------------|
---------------|--0------------|---------------|--------------|---------------|
--4------------|---------------|--0------------|--------------|--4------------|
---------------|---------------|---------------|--7-----------|---------------|
S E S E E
H.
S E.
S Q
E H
S
----------------||--0------------------|-----------------------|
--3-3--2-0------||--0------------------|---------0--0----------|
--2---------2--*||-----------------2---|--L-2------------------|
--0------------*||--0------------------|-----------------------|
----------------||---------------------|----0-------2----------|
----------------||---------------------|-----------------------|
E. Q.
E E. S S
Q
S Q
S E Q
E Q.
E Q.
------------------------|------------------------|----------------------|
--L-----------------0-3-|--L----2-3----2-0-------|----------------------|
-------------2--2-------|-------------------2----|--L---------1--2------|
------------------------|--0------2--------------|----------------------|
--L---4-------------L---|------------------------|----------------------|
------------------------|------------------------|-----0---------2------|
|--3--|
E H
E Q
E. S S S H
S E
----------------------|----------------------------|
----------------------|---------0h-----------------|
--L-----------1--2----|--L---2h----2----------L----|
----------------------|----------------------------|
-----------------0----|--L---2----------------L-4--|
--L--4----------------|----------------------------|
|-3-|
Q
E S S Q
T S. S S S
E. Q.
Q.
S
S Q.
H
S
------------------------------|----------------------|----------------------|
----------0-3--------3--2-0---|----------------------|----------------------|
-------2--------------------2-|--L---2---------------|----1------2----------|
--------------0------L--------|----------------------|-----------2----------|
--L-------L-------------------|----------------------|-----------0----------|
------------------------------|-------------0--------|--L-------------------|
W
-------------------||
-------------------||
--L----------------||
--L----------------||
--L----------------||
-------------------||

Duration Legend
--------------W - whole

H - half
Q - quarter
E - 8th
S - 16th
T - 32nd
X - 64th
. - note dotted
|-n-| - n-tuplets
Tablature Legend
---------------L - tied note
x - dead note
g - grace note
(n) - ghost note
> - accentuded note
NH - natural harmonic
AH - artificial harmonic
TH - tapped harmonic
SH - semi harmonic
PH - pitch harmonic
h - hammer on
p - pull off
b - bend
br - bendRelease
pb - preBend
pbr - preBendRelease
brb - bendReleaseBend
\n/ - tremolo bar dip
\n - tremolo bar dive
-/n - tremolo bar Release up
/n\ - tremolo bar inverted dip
/n - tremolo bar return
-\n - tremolo bar Release down
S - shift slide
s - legato slide
/ - slide into from below or out of upwards
\ - slide into from above or out of downwards
~ - vibrato
W - wide vibrato
tr - trill
TP - tremolo picking
T - tapping
S - slap
P - pop
< - fade in
^ - brush up
v - brush down