Sei sulla pagina 1di 3

Volare Gipsy Kings

Part 1

|-----0---------|-----------2----2--------2------42h4p2-------------------------------------------4-----------4-2h4p2---2---4---7----|
|---0-----------|---------2-------------2------2--------------------55p4--4-----------------------4-----------2--2-------2---5---7----|
|-1-----------1-|-------2-------------2------2--------------------4------6---6p4--4----------------4-----------2--2-------2---6---8----|
|-----------4---|-----4--------4----3-------2-------------------6----------------7--7-6-4-------4--6---------2----------------6---9----|
|---------2-----|---------------------------------------------4-------------------------------7----6------4-------------------4---9----|
|-------0-------|-------------------------------------------0------------------------------0-------4----2-------------------------7----|

Part 2
F#m B7
Volare oh oh Can-
E C#m
tare oh oh oh oh Nel
F#m B7 E
blu dipinto di blu
F#m B7 E
felice di stare lassu

Part 3
C#m
Y volando, volando feliz yo me encuentro mas
G#m G#7
alto mas alto que el sol y mientras que el mundo se aleja despacio de
C#m Am
mi una musica dulce se ha tocada solo para
G B
mi

Part 4

F#m B7
Volare oh oh Can-
E C#m
tare oh oh oh oh Nel
F#m B7 E
blu dipinto di blu
F#m B7 E
felice di stare lassu
Part 4.1
|------------------------------------------12p11----11-9-----9---------------------------------------|
|--------5--5-7-7-7-7----9-9-9---10p9h10---------12-------10----12--9--12-10----10-9-----------9-----|
|----------------------------------------------------------------------------11-------8--9--11----9--|
|-----6----------------------------------------------------------------------------------------------|
|---7------------------------------------------------------------------------------------------------|
|-0--------------------------------------------------------------------------------------------------|

Part 5.1

|-----------------------------------------------------------------------------------------------------------------------------|
|---------------------7--------------------------------------------10-9-------------------------------------------------------|
|-6-8-9--6-8-9--6-8-9---9p8p6---8p6-------9p8-9-11-8-9-11--8-9-11-------11-11/13\11-9p8----8-9-------------------------------|
|-----------------------------------9-9-9-----------------------------------------------11------------------------------------|
|-----------------------------------------------------------------------------------------------------------------------------|
|-----------------------------------------------------------------------------------------------------------------------------|

Part 6

|-----------2--2-5p4-2p0-0-2p0--------------24p2-5p4-2p0-0-2p0-0h2p0-0-----------2--2-5p4-2p0-0h2---------------------------|
|--5p4p2--5----------------------5p4p2--5--------------------------------5p4p2--5---------------------2p0---------------------|
|----------------------------------------------------------------------------------------------------------4p22p1-1----------|
|--------------------------------------------------------------------------------------------------------------------4-1-2----|
|-----------------------------------------------------------------------------------------------------------------------------|
|-----------------------------------------------------------------------------------------------------------------------------|

Parte 7

F#m B7
Volare oh oh Can-
E C#m
tare oh oh oh oh Nel
F#m B7 E
blu dipinto di blu
F#m B7 E
felice di stare lassu
F#m B7 E
blu dipinto di blu
F#m B7 E
felice di stare lassu F#m
B7 E
blu dipinto di blu
F#m B7 E
felice di stare lassu
Parte 7.1

|----------------------4-5p4-5-7--7-| |-7-7h9p7-| |-7-5h7p5-5-5h7p5-4h5p4----4-| |-4-----| |-4-5p4-----------------------------|


|------------------5-6--------------| |---------| |------------------------7---| |---5h7-| |-------7-5p4---4-7-5p4-------------|
|------------4h6--------------------| |---------| |----------------------------| |-------| |-------------6---------6p4---------|
|-6p4h6p46p4------------------------| |---------| |----------------------------| |-------| |---------------------------7p6p4---|
|-----------------------------------| |---------| |----------------------------| |-------| |---------------------------------7-|
|-----------------------------------| |---------| x3 |----------------------------| |-------|x4 |-----------------------------------|

|----------------------------------|-------------------------------------------------4h5h7-7p5p4---9p7p5-11-12------|
|----------------------------------|-------------------------------------------4h5h7-------------7------------------|
|----------------------------------|---------------------------------------4h6--------------------------------------|
|-----4-----4-4-4-4-4-4-4-----4----|-----4-----4-4-4-----4-4---------4h6h7------------------------------------------|
|-6h7---6h7---------------6h7---6--|-6h7---6h7-------6h7-----6p4h6h7------------------------------------------------|
|----------------------------------|--------------------------------------------------------------------------------|

|-9-11p9----9-------------------------------| |------12-| |-11p9-------9------------------------------|


|--------12---1-10-12-10-12p10-9h10p9----7--| |---12----| |------12-10---12-10-9-10p9------7-9-7------|
|-------------------------------------11----| |-9-------| |---------------------------11-9-------9----|
|-------------------------------------------| |---------| |-------------------------------------------|
|-------------------------------------------| |---------| |-------------------------------------------|
|-------------------------------------------| |---------|X7 |-------------------------------------------|
|