Sei sulla pagina 1di 29

cemetery gates

words and music by pantera


arranged by pantera

f#m7 asus2 e5 dmaj13sus2


2 4 2 2 2 x x 0 2 4 0 x 0 x 2 4 0 x x x 0 4 2 0

gtr i (e a d g b e) - 'gtr.i'
gtr ii (d a d g b e) - 'gtr.ii'
gtr iii (e a d g b e) - 'gtr.iii'
gtr iv (e a d g b e) - 'gtr.iv'
gtr v (e a d g b e) - 'scrapes'
gtr vi (e a d g b e) - 'false harmonics'
tuning is a quarter step down (halfway between e and eb)

intro
moderate rock q=120
f#m7 asus2 e5
2/2
gtr i
e e e e q e e +e e e e +e e e e
|----------------|-----------------------|
|---------2------|---------0-(0)-0-------|
|-------2----2---|-------4-----------4---|
|-----2----------|-----2-----------------|
|---4----------0-|-(0)-------------------|
|-2--------------|---------------------0-|
|
| gtr ii
| ~~~
| w h e e a e e
|----------------|-----------------------|
|----------------|-----------------------|
|----------------|-----------------------|
|----------------|-----------------------|
|----------------|------------0--2-2s4-2-|
|----------------|-----------------------|

dmaj13sus2
+e e e e +e e e e +e e e e +e e q
|---------------------|---------0-(0)------------------------|
|---------0-(0)-0-----|-------2-------2----------------------|
|-------4---------4---|-----4------------------4-------------|
|-----2-------------0-|-(0)----------------------------------|
|---------------------|--------------------------------------|
|-(0)-----------------|--------------------------------------|
|
| gtr iii
|~~~~~
| +h e e e e h e s +s s s s +s
|---------------------|--------------------------------------|
|---------------------|--------------------------------------|
|---------------------|---------------4pb6r(4)p2---4pb6r(4)p=|
|---------------------|--------------------------------------|
|-(2)--------0--------|--------------------------------------|
|---------------6-2-0-|-(0)----------------------------------|
+w

f#m7 asus2 e5
e e e e q e e +e e e e +e e e e
|----------------|-----------------------|
|---------2------|---------0-(0)-0-------|
|-------2----2---|-------4-----------4---|
|-----2----------|-----2-----------------|
|---4----------0-|-(0)-------------------|
|-2--------------|---------------------0-|
|
| gtr ii
| ~~~~~~~~~~~~~~~~~~~~~
| w +w
|----------------|-----------------------|
|----------------|-----------------------|
|-2--------------|-(2)-------------------|
|----------------|-----------------------|
|----------------|------------0--2-2s4-2-|
|----------------|-----------------------|
h e e a e e

dmaj13sus2
+e e e e +e e e e +e e e e e e e e
|------------------------|-----------0--------||
|----------0-(0)-0-------|-----2-------2------||
|--------4---------4-----|-------4-------4----||
|-----2----------------0-|-(0)-----0-------0--||
|------------------------|--------------------||
|-(0)--------------------|--------------------||
|
| ~~~~~~~~~~~ ~~~~~~~~
| +e q. +q. a e +w
|------------------------|--------------------||
|------------------------|--------------------||
|------------------------|--------------------||
|-----2------(2)-----2s4-|-(4)----------------||
|-(2)--------------------|--------------------||
|------------------------|--------------------||

1st verse
f#m7 asus2 e5
e e e e q e e +e e e e +e e e e
|----------------|---------------------|
|---------2------|---------0-(0)-0-----|
|-------2----2---|-------4---------4---|
|-----2----------|-----2---------------|
|---4----------0-|-(0)-----------------|
|-2--------------|-------------------0-|

dmaj13sus2
+e e e e +e e e e +e e e e +e e q
|---------------------|---------0-(0)-------|
|---------0-(0)-0-----|-------2-------2-----|
|-------4---------4---|-----4-----------4---|
|-----2-------------0-|-(0)-----------------|
|---------------------|---------------------|
|-(0)-----------------|---------------------|

f#m7 asus2 e5
e e e e q e e +e e e e +e e e e
|----------------|---------------------|
|---------2------|---------0-(0)-0-----|
|-------2----2---|-------4---------4---|
|-----2----------|-----2---------------|
|---4----------0-|-(0)-----------------|
|-2--------------|-------------------0-|

dmaj13sus2
+e e e e +e e e e +e e e e e e e e
|---------------------|-----------0--------|
|---------0-(0)-0-----|-----2-------2------|
|-------4---------4---|-------4-------4----|
|-----2-------------0-|-(0)-----0-------0--|
|---------------------|--------------------|
|-(0)-----------------|--------------------|

f#m7 asus2 e5
e e e e q e e +e e e e +e e e e
|----------------|---------------------|
|---------2------|---------0-(0)-0-----|
|-------2----2---|-------4---------4---|
|-----2----------|-----2---------------|
|---4----------0-|-(0)-----------------|
|-2--------------|-------------------0-|

dmaj13sus2
+e e e e +e e e e +e e e e +e e q
|---------------------|---------0-(0)-------||
|---------0-(0)-0-----|-------2-------2-----||
|-------4---------4---|-----4-----------4---||
|-----2-------------0-|-(0)-----------------||
|---------------------|---------------------||
|-(0)-----------------|---------------------||

f#m7 asus2 e5
e e e e q e e +e e e e +e e e e
|----------------|---------------------|
|---------2------|---------0-(0)-0-----|
|-------2----2---|-------4---------4---|
|-----2----------|-----2---------------|
|---4----------0-|-(0)-----------------|
|-2--------------|-------------------0-|

+e e e e +e e e e +e e e e +e e e e
|---------------------|-------0----------0-----|
|---------0-(0)-0-----|-------3/-5-(5)---5/-7--|
|-------4---------4---|-----4-4/-6-(6)---6/-7--|
|-----2-------------0-|-(0)------------0-------|
|---------------------|------------------------|
|-(0)-----------------|------------------------|

+e e e e +e e e e +w +w
|-------0----------0-----|----------------|---------------||
|-(7)---7/-9-(9)---9/-10-|-(10)-----------|-(10)----------||
|-(7)---7/-9-(9)---9/-11-|-(11)-----------|-(11)----------||
|-----0----------0-------|----------------|---------------||
|------------------------|----------------|---------------||
|------------------------|----------------|---------------||
|
| gtr iii
| < < < < < <
| h q q +q q q q q q h
|------------------------|----------------|---------------||
|------------------------|----------------|---------------||
|------------------9-----|--(9)--9--9--9--|---9---9-------||
|------------------------|----------------|---------------||
|------------------------|----------------|---------------||
|------------------------|----------------|---------------||

interlude
f#m7 f#m6 dmaj7/f#
gtr iii
~~~~~~~~~~ ~~~~~~~~~~~~~~
q +q +q. e +h +q. e
|-12---(12)---(12)-----11-|-(11)-------(11)-----10-|
|-------------------------|------------------------|
|--9----(9)----(9)------8-|--(8)--------(8)------7-|
|-------------------------|------------------------|
|-------------------------|------------------------|
|-------------------------|------------------------|
|
| gtr i
| e e e e e e e e +e e e e e e e e
|----2----------2---------|------2-------2---------|
|-^5-----5---------5----4-|--(4)---4--------4----3-|
|-^2--------2--------2--2-|--(2)-----2--------2--2-|
|-^4--------------------4-|--(4)-----------------4-|
|-^4--------------------4-|--(4)-----------------4-|
|-^2--------------------2-|--(2)-----------------2-|

f#m f#m7
+q s +e. +q +e e +q q +q +e e
|-(10)---17b19==(17)---(17)r==(17)-9-|-(9)---16b17====(16)r=(16)-12-|
|--------10b12==(10)---(10)r==(10)---|--------9b10=====(9)r==(9)----|
|--(7)-----------------------------6-|-(6)------------------------9-|
|------------------------------------|------------------------------|
|------------------------------------|------------------------------|
|------------------------------------|------------------------------|
|
| +e e e e e e e e +e e e e q. e
|------2-----------------2---------2-|-(2)-2------------2-----------|
|--(3)----3-----------------3------2-|-(2)----2-------------------5-|
|--(2)---------------2----------2--2-|-(2)----------2-------------2-|
|--(4)-----------------------------4-|-(4)------------------------4-|
|--(4)-----------------------------4-|-(4)------------------------4-|
|--(2)-----------------------------2-|-(2)------------------------2-|

f#m6 dmaj7/f#
~~~~ ~~~~~~~~~ ~~~
+h s +s +e +e e +q. a +e +q +e e
|-(12)------19b21==(19)-(19)-(19)----|---------22b24==(22)-(22)---(22)r-10-|
|-----------12b14==(12)-(12)-(12)r---|---------15b17==(15)-(15)---(15)r----|
|--(9)-----------------------------8-|-(8)-------------------------------7-|
|------------------------------------|-------------------------------------|
|------------------------------------|-------------------------------------|
|------------------------------------|-------------------------------------|
|
| +e e q e e e e +e e e e e e e e
|------2-----2-----------------------|-----2-----------------2-------------|
|--(5)---5----------------5--------4-|-(4)---4------------------4--------3-|
|--(2)-------------------------2---2-|-(2)--------------2-----------2----2-|
|--(4)-----------------------------4-|-(4)-------------------------------4-|
|--(4)-----------------------------4-|-(4)-------------------------------4-|
|--(2)-----------------------------2-|-(2)-------------------------------2-|

f#m
\2
~~~~~~~~~~~~~~
+h +q. e +e +s s q h
|-(10)-------(10)---------|--------------------------------|
|-------------------------|--------------------------------|
|--(7)--------(7)-----[6]-|-([6])-([6])--------------------|
|-------------------------|--------------------------------|
|-------------------------|--------------------------------|
|-------------------------|--------------------------------|
|
| +e e e e e e e e e e e s +s e e e e
|------2-------2-------2--|--------------------------------|
|--(3)---3--------3----2--|-----------------5-(5)----------|
|--(2)-----2--------2--2--|---------4-----6----------------|
|--(4)-----------------4--|-----------------------------2--|
|--(4)-----------------4--|-------------------------2-4----|
|--(2)-----------------2--|--------------------------------|

f#m7 asus2 e5
~~ ~~~
h. e +e +e. +s +h e +e
|---------------------|----------------------------------|
|---------------------|----------------------------------|
|-------------4b6r(4)-|-(4)---(4)b6r(4)---------4pb6r(4)p|
|-4-------------------|----------------------------------|
|---------------------|----------------------------------|
|---------------------|----------------------------------|
|
| e e e e q e e +e e e e +e e e e
|---------------------|----------------------------------|
|----------2----------|-----------------0-(0)-0----------|
|--------2----2-------|--------------4----------4--------|
|------2--------------|-----2----------------------------|
|----4-------------0--|-(0)------------------------------|
|-2-------------------|-------------------------------0--|

dmaj13sus2
~~~~~~~~~ ~~~
|----3----| |----3-----|
q q +q +q s +e. +q +q +e a +e +e +e +e
|---------------------------------|----------------------------------------------|
|-----------------------5b7r(5)---|-(5)---(5)---(5)-5b7==(5)r(5)b7==(5)r(5)b7====|
|--2------------------------------|----------------------------------------------|
|-------2---(2)---(2)-------------|----------------------------------------------|
|---------------------------------|----------------------------------------------|
|---------------------------------|----------------------------------------------|
|
| +e e e e +e e e e +e e e e +e e q
|---------------------------------|-----------0-(0)------------------------------|
|---------------0-(0)-0-----------|--------2--------------2----------------------|
|---------4-------------4---------|-----4---------------------4------------------|
|-----2-------------------------0-|-(0)------------------------------------------|
|---------------------------------|----------------------------------------------|
|-(0)-----------------------------|----------------------------------------------|

f#m7 asus2
e5
gtr iii
~~~~~~~~~~~~
~~~
|-----3------| |-----3------|
+e +e +e +e +e +e +e +e +q +h q +e
e
|---------------------------------------------------------|-----------------------
--|
|-(5)r(5)b7====(5)r(5)b7==(5)r==(5)b5.5==(5)b7==(5)-(5)---|-
(5)r--------------------|
|---------------------------------------------------------|-------------6b7r==(6)-
6-|
|---------------------------------------------------------|-----------------------
--|
|---------------------------------------------------------|-----------------------
--|
|---------------------------------------------------------|-----------------------
--|
|
| gtr iv
| w w
|---------------------------------------------------------|-----------------------
--|
|---------------------------------------------------------|-----------------------
--|
|---------------------------------------------------------|-----------------------
--|
|---------------------------------------------------------|-----------------------
--|
|---------------------------------------------------------|-----------------------
--|
|---------------------------------------------------------|-----------------------
--|
|
| gtr i
| e e e e q e e +e e e e +e e e
e
|---------------------------------------------------------|-----------------------
--|
|-----------------------------------------2---------------|----------0-(0)--
0-------|
|-----------------------------2----------------------2----|--------4-----------
4----|
|-------------------2-------------------------------------|------
2------------------|
|------------4------------------------------------------0-|-
(0)---------------------|
|--2------------------------------------------------------|-----------------------
0-|

~~~~~~~~~~~~~~~~~ ~~~~~~~~~~ ~~~


+q. e +q +e e +e e e e +e e e e
|-----------------------------|----------------------------------|
|---------12-(12)---(12)\-/15-|-(15)p12-15--/17-(17)p14-17--/19--|
|-(6)-------------------------|----------------------------------|
|-----------------------------|----------------------------------|
|-----------------------------|----------------------------------|
|-----------------------------|----------------------------------|
|
| ~~~~~~~~ ~~~
| h q. e +e e e e +e e e e
|-----------------------------|----------------------------------|
|--------------------------12-|-(12)p=9-12--/14-(14)p10-14--/15--|
|-----------------------------|----------------------------------|
|-----------------------------|----------------------------------|
|-----------------------------|----------------------------------|
|-----------------------------|----------------------------------|
|
| +e e e e +e e e e +e e e e +e e e e
|-----------------------------|----------0---------------0-------|
|----------0--(0)-0-----------|----------3/---5--(5)-----5/---7--|
|-------4-------------4-------|-------4--4/---6--(6)-----6/---7--|
|-----2---------------------0-|--(0)------------------0----------|
|-----------------------------|----------------------------------|
|-(0)-------------------------|----------------------------------|

~~~~~ ~~~~~~~~ ~~~~~~~~~~~~~~~~~~~~~~~~~~~~~~~~~~~~~


+e e e e +e e e e +w +w +w
|---------------------------------|-------------|-------------|---------||
|-(19)p15-19--/21-(21)p17-21--/22-|-(22)--------|-(22)--------|-(22)----||
|---------------------------------|-------------|-------------|---------||
|---------------------------------|-------------|-------------|---------||
|---------------------------------|-------------|-------------|---------||
|---------------------------------|-------------|-------------|---------||
|
| \5
| ~~~~~ ~~~~~~~~ ~~~~~~~~~~~~~~~~~~~~~~~
| +e e e e +e e e e +w +w w
|---------------------------------|-------------|-------------|---------||
|-(15)p12-15--/17-(17)p14-17--/19-|-(19)--------|-(19)--------|---------||
|---------------------------------|-------------|-------------|--<3>----||
|---------------------------------|-------------|-------------|---------||
|---------------------------------|-------------|-------------|---------||
|---------------------------------|-------------|-------------|---------||
|
| +e e e e +e e e e +w +w +w
|----------0---------------0------|-------------|-------------|---------||
|--(7)-----7/---9--(9)-----9/--10-|-(10)--------|-(10)--------|-(10)----||
|--(7)-----7/---9--(9)-----9/--11-|-(11)--------|-(11)--------|-(11)----||
|-------0---------------0---------|-------------|-------------|---------||
|---------------------------------|-------------|-------------|---------||
|---------------------------------|-------------|-------------|---------||

faster q=149
a5 a5
4/4
gtr iii
pm----| ~~~ ~~~ pm----| ~~~ ~
e e e e e e e e q e e q e e e e e e e e e e q e e e e q
|-----------------|-------------------|-----------------|-----------------|
|-----------------|-------------------|-----------------|-----------------|
|-----------------|----------[4]------|-----------------|-----------------|
|-2---------2-1-2-|-[3]--2-3------2-3-|-2---------2-1-2-|-[3]--1-2---1----|
|-0-0-0-0-0-------|-------------------|-0-0-0-0-0-------|----------3---2--|
|-----------------|-------------------|-----------------|-----------------|

a5 a5
pm----| ~~~ ~~~ pm----| ~~~ ~
e e e e e e e e q e e q e e e e e e e e e e q e e e e q
|-----------------|-------------------|-----------------|------------------|
|-----------------|-------------------|-----------------|------------------|
|-----------------|----------[4]------|-----------------|------------------|
|-2---------2-1-2-|-[3]--2-3------2-3-|-2---------2-1-2-|-[3]--1-2---1-----|
|-0-0-0-0-0-------|-------------------|-0-0-0-0-0-------|----------3---2---|
|-----------------|-------------------|-----------------|------------------|

a5
pm----| ~~~ ~~~
e e e e e e e e q e e q e e
|-----------------|-------------------|
|-----------------|-------------------|
|-----------------|----------[4]------|
|-2---------2-1-2-|-[3]--2-3------2-3-|
|-0-0-0-0-0-------|-------------------|
|-----------------|-------------------|

a5 e5 f5
pm----| ~~~
e e e e e e e e q e e e. s +e e
|-----------------|----------------------||
|-----------------|----------------------||
|-----------------|----------------------||
|-2---------2-1-2-|-[3]--1-2-------------||
|-0-0-0-0-0-------|----------3\-2-(2)-3--||
|-----------------|-------------0-(0)-1--||

q=145
f#5 a5 b5 c5 e5 f5
pm| pm--| pm--|
e e e e e e e e e e e e e. s +e e
||------------------|--------------------|
||o-----------------|--------------------|
||------------------|--------------------|
||--------2-2-2-2-4-|-4-4-4-5------------|
||o-4-4-4-0-0-0-0-2-|-2-2-2-3----2-(2)-3-|
||--2-2-2-----------|------------0-(0)-1-|

f#5 a5 b5 c5
pm| pm--| pm--| pm| pm
e e e e e e e e e e e e e. s +s s e
|-----------------|-----------------------|
|-----------------|-----------------------|
|-----------------|-----------------------|
|-------2-2-2-2-4-|-4-4-4-5---------------|
|-4-4-4-0-0-0-0-2-|-2-2-2-3----2-(2)---3--|
|-2-2-2-----------|------------0-(0)---1--|

f#5 a5 b5 c5 e5 f5
pm| pm--| pm--|
e e e e e e e e e e e e e. s +e e
|-----------------|--------------------|
|-----------------|--------------------|
|-----------------|--------------------|
|-------2-2-2-2-4-|-4-4-4-5------------|
|-4-4-4-0-0-0-0-2-|-2-2-2-3----2-(2)-3-|
|-2-2-2-----------|------------0-(0)-1-|

f#5 a5 b5 c5 e5 f5 f#5
pm| pm--| pm--|
e e e e e e e e e e e e e. s +s s e w
|-----------------|----------------------|------||
|-----------------|----------------------|------||
|-----------------|----------------------|------||
|-------2-2-2-2-4-|-4-4-4-5--------------|------||
|-4-4-4-0-0-0-0-2-|-2-2-2-3----2-(2)---3-|-4----||
|-2-2-2-----------|------------0-(0)---1-|-2----||

2nd and 3rd verses


q=142
f#m7 asus2 e5
2/2
>
+w +w
|------------------|---------------------|
|------------------|---------------------|
|------------------|---------------------|
|------------------|---------------------|
|-(4)--------------|-(4)-----------------|
|-(2)--------------|-(2)-----------------|
|
| gtr i
| e e e e q e e +e e e e +e e e e
|------------------|---------------------|
|-----------2------|---------0-(0)-0-----|
|---------2----2---|-------4---------4---|
|-------2----------|-----2---------------|
|-----4----------0-|-(0)-----------------|
|--2---------------|-------------------0-|

dmaj13sus2
w w
|---------------------|--------------------|
|---------------------|--------------------|
|---------------------|--------------------|
|---------------------|--------------------|
|---------------------|--------------------|
|---------------------|--------------------|
|
| +e e e e +e e e e +e e e e +e e q
|---------------------|---------0-(0)------|
|---------0-(0)-0-----|-------2-------2----|
|-------4---------4---|-----4-----------4--|
|-----2-------------0-|-(0)----------------|
|---------------------|--------------------|
|-(0)-----------------|--------------------|

f#m7 asus2 e5
gtr i
e e e e q e e +e e e e +e e e e
|----------------|---------------------|
|---------2------|---------0-(0)-0-----|
|-------2----2---|-------4---------4---|
|-----2----------|-----2---------------|
|---4----------0-|-(0)-----------------|
|-2--------------|-------------------0-|

dmaj13sus2
+e e e e +e e e e +e e e e +e e q
|---------------------|---------0-(0)-------|
|---------0-(0)-0-----|-------2-------2-----|
|-------4---------4---|-----4-----------4---|
|-----2-------------0-|-(0)-----------------|
|---------------------|---------------------|
|-(0)-----------------|---------------------|
f#m7 asus2 e5
e e e e q e e +e e e e +e e e e
|----------------|---------------------|
|---------2------|---------0-(0)-0-----|
|-------2----2---|-------4---------4---|
|-----2----------|-----2---------------|
|---4----------0-|-(0)-----------------|
|-2--------------|-------------------0-|

1.
dmaj13sus2
+e e e e +e e e e +e e e e +e e q
|---------------------|---------0-(0)-------|
|---------0-(0)-0-----|-------2-------2-----|
|-------4---------4---|-----4-----------4---|
|-----2-------------0-|-(0)-----------------|
|---------------------|---------------------|
|-(0)-----------------|---------------------|

f#m7 asus2 e5
e e e e q e e +e e e e +e e e e
|----------------|---------------------|
|---------2------|---------0-(0)-0-----|
|-------2----2---|-------4---------4---|
|-----2----------|-----2---------------|
|---4----------0-|-(0)-----------------|
|-2--------------|-------------------0-|
|
| gtr v
| w w
|----------------|---------------------|
|----------------|---------------------|
|----------------|---------------------|
|----------------|---------------------|
|----------------|---------------------|
|----------------|---------------------|

dmaj13sus2
+e e e e +e e e e +e e e e +e e q
|---------------------|--------0-(0)-------|
|---------0-(0)-0-----|------2------2------|
|-------4---------4---|----4----------4----|
|-----2-------------0-|-(0)----------------|
|---------------------|--------------------|
|-(0)-----------------|--------------------|
|
| tptptptp tptptptp
| w e e e e e e e e
|---------------------|--------------------|
|---------------------|--------------------|
|---------------------|--xsxsxsxs=xsxsxsx--|
|---------------------|--xsxsxsxs=xsxsxsx--|
|---------------------|--------------------|
|---------------------|--------------------|
q=148
$
f#5 a5 e5
4/4
gtr iii
h +e s s e e +h +e s s e e
|------------------|--------------------|
|------------------|--------------------|
|--------------2---|----------------2---|
|----------------2-|-(2)----(2)---------|
|-4----(4)-2s4---0-|-(0)----(0)-2s4---2-|
|-2----(2)---------|------------------0-|

d5 a/c#
+h +e s s e e +q. e +q. e
|--------------------|------------------|
|--------------------|------------------|
|----------------2-2-|-(2)--------------|
|------------------0-|-(0)---7-(7)------|
|-(2)----(2)-2s4-----|-------4-(4)------|
|-(0)----(0)---------|---------------0--|

f#5 a5 e5 d5 a/c#
h +e s s e e +h +e s s e e +h +e s s e e +q. e +q. e
|------------------|--------------------|--------------------|-----------------|
|------------------|--------------------|--------------------|-----------------|
|--------------2---|----------------2---|----------------2-2-|-(2)-------------|
|----------------2-|-(2)----(2)---------|------------------0-|-(0)---7-(7)-----|
|-4----(4)-2s4---0-|-(0)----(0)-2s4---2-|-(2)----(2)-2s4-----|-------4-(4)-----|
|-2----(2)---------|------------------0-|-(0)----(0)---------|---------------0-|

f#5 a5 e5 d5 a/c#
h +e s s e e +h +e s s e e +h +e s s e e +q. e +q. e
|------------------|--------------------|--------------------|-----------------|
|------------------|--------------------|--------------------|-----------------|
|--------------2---|----------------2---|----------------2-2-|-(2)-------------|
|----------------2-|-(2)----(2)---------|------------------0-|-(0)---7-(7)-----|
|-4----(4)-2s4---0-|-(0)----(0)-2s4---2-|-(2)----(2)-2s4-----|-------4-(4)-----|
|-2----(2)---------|------------------0-|-(0)----(0)---------|---------------0-|

f#5 a5 e5
h +e s s e e +h +e s s e e
|------------------|--------------------|
|------------------|--------------------|
|--------------2---|----------------2---|
|----------------2-|-(2)----(2)---------|
|-4----(4)-2s4---0-|-(0)----(0)-2s4---2-|
|-2----(2)---------|------------------0-|

to coda
d5 a/c#e/ab a5
~ pm----|
+h +e s s q e e e e e e e e q. +e h
|-------------------|-----------------|-----------------|
|-------------------|-----------------|-----------------|
|----------------2--|-----------------|-----------------|
|-------------------|-7-7-7-7---------|-----------------|
|-(2)----(2)-2s4----|-5-5-5-4---7---7-|-7----(7)\-------|
|-(0)----(0)--------|-----------4---4-|-5----(5)\-------|

1st chorus
a5 a5
pm----| ~ ~ pm----| ~ ~
e e e e e e e e q e e q e e e e e e e e e e q e e e e q
|-----------------|---------------|-----------------|----------------|
|-----------------|---------------|-----------------|----------------|
|-----------------|--------4------|-----------------|----------------|
|-2---------2-1-2-|-3--2-3----2-3-|-2---------2-1-2-|-3--1-2---1-----|
|-0-0-0-0-0-------|---------------|-0-0-0-0-0-------|--------3---2---|
|-----------------|---------------|-----------------|----------------|

a5 a5
pm----| ~ ~ pm----| ~
e e e e e e e e q e e q e e e e e e e e e e q e e e. s +e e
|-----------------|---------------|-----------------|---------------------||
|-----------------|---------------|-----------------|--------------------o||
|-----------------|--------4------|-----------------|---------------------||
|-2---------2-1-2-|-3--2-3----2-3-|-2---------2-1-2-|-3--1-2--------------||
|-0-0-0-0-0-------|---------------|-0-0-0-0-0-------|--------3\-2-(2)-3--o||
|-----------------|---------------|-----------------|-----------0-(0)-1---||

2.
dmaj13sus2 f#m7
asus2

~~~~~~~~~
|-----------
-3------------| |-----------3------------|
e a +e +e +e +e +e +e +e +q +q
+q +q +q +q
|-----------------------------------------------------------------|---------------
----------------------------------------------------------------|
|-----------------------------------------------------------------|---------------
----------------------------------------------------------------|
|---4b6==(4)r(4)b6==(4)r=========(4)b6===(4)r=====(4)b6===(4)r====|
==(4)b6====(4)r=============(4)b6============(4)r=========(4)b6=======(4)------|
|-----------------------------------------------------------------|---------------
----------------------------------------------------------------|
|-----------------------------------------------------------------|---------------
----------------------------------------------------------------|
|-----------------------------------------------------------------|---------------
----------------------------------------------------------------|
|
| gtr iv
| h a +e +e +e +e +e.
+s +e +e +e +e +e +e
|-----------------------------------------------------------------|---------------
----------------------------------------------------------------|
|-----------------------------------------------------------------|---------------
----------------------------------------------------------------|
|-----------------------11pb14==(11)r===(11)b14==(11)r===(11)b14==|=(11)----------
(11)r(11)b13r=======(11)b13==(11)r(11)b13=========(11)r====(11)-|
|-----------------------------------------------------------------|---------------
----------------------------------------------------------------|
|-----------------------------------------------------------------|---------------
----------------------------------------------------------------|
|-----------------------------------------------------------------|---------------
----------------------------------------------------------------|
|
| gtr i
| e e e e +e e q e e
e e q e e
|--------------------0-----------
(0)------------------------------|------------------------------------------------
-------------------------------|
|-------------2---------------------------
2-----------------------|----------------------------------------------
2--------------------------------|
|---------4----------------------------------------
4--------------|-------------------------------------
2-----------------------------2-----------|
|-
0---------------------------------------------------------------|-----------------
-----2--------------------------------------------------------|
|-----------------------------------------------------------------|---------
4------------------------------------------------------------------0--|
|-----------------------------------------------------------------|---
2---------------------------------------------------------------------------|

d.s. al coda
e5 dmaj13sus2
~~~~~~~~~~~~~~~~~~~~~~~~~~~~~
+w +w +w
|----------------------|----------------------|------------------------|
|----------------------|----------------------|------------------------|
|--(4)-----------------|--(4)-----------------|-(4)r-------------------|
|----------------------|----------------------|------------------------|
|----------------------|----------------------|------------------------|
|----------------------|----------------------|------------------------|
|
| gtr v
| ~~~~~~~~~~~~~~~~~~~~~~~~~~ tp tptptp tp tptptp
| +w +w e e e e e e e e
|----------------------|----------------------|------------------------|
|----------------------|----------------------|------------------------|
|-(11)-----------------|-(11)-----------------|--xs==xsxsxs=xs=xsxsx---|
|----------------------|----------------------|--xs==xsxsxs=xs=xsxsx---|
|----------------------|----------------------|------------------------|
|----------------------|----------------------|------------------------|
|
| +e e e e +e e e e +e e e e +e e e e e e e e +e e q
|----------------------|----------------------|----------0-(0)---------|
|----------0-(0)-0-----|----------0-(0)-0-----|--------2-------2-------|
|--------4---------4---|--------4---------4---|------4-----------4-----|
|------2---------------|------2-------------0-|--0---------------------|
|--(0)-----------------|----------------------|------------------------|
|--------------------0-|--(0)-----------------|------------------------|

2nd chorus
&
a5 a5
pm----| ~ ~ pm----| ~ ~
e e e e e e e e q e e q e e e e e e e e e e q e e e e q
|-----------------|---------------|-----------------|----------------|
|-----------------|---------------|-----------------|----------------|
|-----------------|--------4------|-----------------|----------------|
|-2---------2-1-2-|-3--2-3----2-3-|-2---------2-1-2-|-3--1-2---1-----|
|-0-0-0-0-0-------|---------------|-0-0-0-0-0-------|--------3---2---|
|-----------------|---------------|-----------------|----------------|

a5 a5
pm----| ~ ~ pm----| ~ ~~~~
e e e e e e e e q e e q e e e e e e e e e e q e e e e s +s +e
|-----------------|---------------|-----------------|-------------------------|
|-----------------|---------------|-----------------|-------------------------|
|-----------------|--------4------|-----------------|-------------------------|
|-2---------2-1-2-|-3--2-3----2-3-|-2---------2-1-2-|-3--1-2---1--------------|
|-0-0-0-0-0-------|---------------|-0-0-0-0-0-------|--------3---2b3==(2)r(2)-|
|-----------------|---------------|-----------------|-------------------------|

~~~~~~~~ ~ ~
+q +s +e. +e e e e q e e q e e
|----------------------------|---------------|
|----------------------------|---------------|
|----------------------------|--------4------|
|----------------------2-1-2-|-3--2-3----2-3-|
|-(2)b3===(2)-(2)-(2)r-------|---------------|
|----------------------------|---------------|

a5
pm----| ~ ~
e e e e e e e e q e e e e q
|-----------------|----------------|
|-----------------|----------------|
|-----------------|----------------|
|-2---------2-1-2-|-3--1-2---1-----|
|-0-0-0-0-0-------|--------3---2---|
|-----------------|----------------|

a5
pm----| ~ ~
e e e e e e e e q e e q e e
|-----------------|---------------|
|-----------------|---------------|
|-----------------|--------4------|
|-2---------2-1-2-|-3--2-3----2-3-|
|-0-0-0-0-0-------|---------------|
|-----------------|---------------|

a5
pm----| pm--------------------------|
|-3-| |-3-| |--3--| |--3--|
e e e e e e e e q q q q q q e e q q e e q q
|-----------------|-------------|------------------||
|-----------------|-------------|------------------||
|-----------------|-------------|------------------||
|-2---------2-1-2-|-------------|------------------||
|-0-0-0-0-0-------|-------------|------------------||
|-----------------|-5-0-1-5-0-1-|-5-5-0-1-5-5-0-1--||

guitar solo
q=146
f#m7 asus2 e5
gtr iii
\4
~~~~~~~~
a a +q e e e e e e +q. +e e e e e
|--------------------------|--------------5----5-4-|
|-2--(2)-(2)---3-5s7s5-3p2-|-(2)-----(2)-----2-----|
|--------------------------|-----------------------|
|--------------------------|-----------------------|
|--------------------------|-----------------------|
|--------------------------|-----------------------|
|
| gtr iv
| w w
|--------------------------|-----------------------|
|--------------------------|-----------------------|
|--------------------------|-----------------------|
|--------------------------|-----------------------|
|---------4----------------|-----------------------|
|---------2----------------|-----------------------|
|
| gtr i
| e e e e q e e +e e e e +e e e e
|--------------------------|-----------------------|
|------------------2-------|----------0--(0)-0-----|
|----------------2-----2---|-------4-----------4---|
|--------------2-----------|-----2-----------------|
|------------4-----------0-|-(0)-------------------|
|---------2----------------|---------------------0-|

dmaj13sus2
~~~ ~~~~
+q. e q q +h. e e
|-(4)---------12---------9---|--(9)-----------------|
|-(2)-----(2)-----9-----10---|-(10)-------------5s9-|
|---------/9---------9-------|--(9)-----------------|
|----------------------------|----------------------|
|----------------------------|----------------------|
|----------------------------|----------------------|
| q. +s s e q.
|
| w w
|----------------------------|----------------------|
|----------------------------|----------------------|
|----------------------------|----------------------|
|----------------------------|----------------------|
|----------------------------|----------------------|
|----------------------------|----------------------|
|
| +e e e e +e e e e +e e e e +e e q
|----------------------------|----------0-(0)-------|
|----------0-----(0)-0-------|--------2-------2-----|
|-------4----------------4---|------4-----------4---|
|-----2--------------------0-|--(0)-----------------|
|----------------------------|----------------------|
|-(0)------------------------|----------------------|

f#m7 asus2 e5
gtr iii
~~~~ ~~
e e q +q e e e e h +q
|-12---10---(10)--10p9-|-----9--------------------|
|----9-----------------|-12----10---------(10)\---|
|----------------------|--------------------------|
|----------------------|--------------------------|
|----------------------|--------------------------|
|----------------------|--------------------------|
|
| gtr i
| e e e e q e e +e e e e +e e e e
|----------------------|--------------------------|
|-------------2--------|----------0-(0)-0---------|
|---------2--------2---|--------4-----------4-----|
|-------2--------------|-----2--------------------|
|----4---------------0-|-(0)----------------------|
|--2-------------------|------------------------0-|

dmaj13sus2
|---3----| |-----3------|
q q q q q e e
|--------------------------------|
|-/10----9---8----7----6---5h==6-|
|--------------------------------|
|--------------------------------|
|--------------------------------|
|--------------------------------|
|
| +e e e e +e e e e
|--------------------------------|
|--------------0-(0)-0-----------|
|----------4-------------4-------|
|------2---------------------0---|
|--------------------------------|
|--(0)---------------------------|
f#m7 asus2
~~~ ~~~~~~~~
h e e e a +e +h +q +q
|------------7----7----------|----------------------|
|--7------------7---7b9==(7)-|-(7)-------(7)--(7)---|
|----------------------------|----------------------|
|----------------------------|----------------------|
|----------------------------|----------------------|
|----------------------------|----------------------|
|
| +e e e e +e e q e e e e q e e
|---------0-(0)--------------|----------------------|
|-------2-------2------------|------------2---------|
|-----4-----------4----------|---------2-------2----|
|-(0)------------------------|-------2--------------|
|----------------------------|-----4--------------0-|
|----------------------------|--2-------------------|

e5 dmaj13sus2
~~~
+e +e e a +e +q. a +e +e +e q +h
|---------7-----------------------------|------------------------|
|-(7)r(7)---7b9==(7)-(7)-----7-(7)pb10==|=(7)r(7)p5--(5)---------|
|---------------------------------------|------------------------|
|---------------------------------------|------------------------|
|---------------------------------------|------------------------|
|---------------------------------------|------------------------|
|
| +e e e e +e e e e q q e e +e e
|---------------------------------------|------------------------|
|-----------------0--(0)-0--------------|----------------0-(0)---|
|---------4----------------4------------|-------------4----------|
|------2--------------------------------|----------------------0-|
|-(0)-----------------------------------|------------------------|
|---------------------------------------|---------0--------------|

dmaj13sus2
~~~~ t
|-3--| |--3---|
+q e s s s t t t t t t t t +e +s s s
|-----------7h9h10-12p=10p9p7h9h10-12s14-(14)-(14)p12p10-|
|-(5)\---/9----------------------------------------------|
|--------------------------------------------------------|
|--------------------------------------------------------|
|--------------------------------------------------------|
|--------------------------------------------------------|
|
| +e e e e +e e q
|-----------0------(0)-----------------------------------|
|---------2-------------------2--------------------------|
|------4-----------------------------------4-------------|
|-(0)----------------------------------------------------|
|--------------------------------------------------------|
|--------------------------------------------------------|
f#m7 asus2
t
t t t t +s. t t t t t e +s t t t t s s. t s s
|-14p10-14s16-(16)p14p12-15p12-15h17-(17)p16p14-19-14-19s21--17----17-|
|---------------------------------------------------------------19----|
|---------------------------------------------------------------------|
|---------------------------------------------------------------------|
|---------------------------------------------------------------------|
|---------------------------------------------------------------------|
|
| e e e e q e e
|---------------------------------------------------------------------|
|--------------------------------------2------------------------------|
|----------------------------------2----------------------2-----------|
|----------------------2----------------------------------------------|
|---------------4------------------------------------------------0----|
|--2------------------------------------------------------------------|

asus2 e
~~~ ~~~~~~~ pm----| pm-----|
|---3---|
q e e e +q +e s s s s s s s s s s s s s s s s s s
|-------19-16-----------------------|--------------------------------------|
|-19------------17-(17)---(17)\-----|--------------------------------------|
|-----------------------------------|----------------------------8-9-10-11-|
|-----------------------------------|----------6-7-8-9-8-9-10-11-----------|
|-------------------------------7-7-|-7-8-9-10-----------------------------|
|-----------------------------------|--------------------------------------|
|
| gtr iv
| +e e e e +e e e e e e e e e e e e
|-----------------------------------|--------------------------------------|
|-------------0-----(0)-0-----------|--------------------------------------|
|--------4------------------4-------|--------------------------------------|
|-----2-----------------------------|--------------------------------------|
|-(0)-------------------------------|-7---7----7---7---7----7----7----7----|
|-----------------------------------|-0---0----0---0---0----0----0----0----|

d5 a/c# e5 f5
~~~
e s s e s s q. +e
|--9------x-x--9--------x---x----9--------(9)\--|
|-10b10.5-x-x-10b10.5==(x)-(x)r-10-------(10)\--|
|-----------------------------------------------|
|-----------------------------------------------|
|-----------------------------------------------|
|-----------------------------------------------|
|
| e e e e e s e. e
|-----------------------------------------------|
|-----------------------------------------------|
|-----------------------------------------------|
|--7------7----7--------7--------7--------------|
|--5------5----5--------5--------4----2----3----|
|-------------------------------------0----1----|
f#5 a5 b5
a +e s s s s a +e s s s s a +e s s
|-----------------14---------------------14---------------------14-|
|--------------14----17p14------------14----17p14------------14----|
|-16b18==(16)r-------------16b18-(16)-------------16b18-(16)-------|
|------------------------------------------------------------------|
|------------------------------------------------------------------|
|------------------------------------------------------------------|
|
| pm---| pm---------------|
| e e e e e e e e
|------------------------------------------------------------------|
|------------------------------------------------------------------|
|------------------------------------------------------------------|
|----------------------------------2---2-----2------------2---4----|
|----------4----4-----4------------0---0-----0------------0---2----|
|----------2----2-----2--------------------------------------------|

c5 e5 f5
s s s s s s s s a +e s s +s s a +e
|-------------------14------------------14------------14---------------|
|-17p14-------14-14----17p14-17b19-(17)----17b19-(17)----17b19==(17)r--|
|-------16b18----------------------------------------------------------|
|----------------------------------------------------------------------|
|----------------------------------------------------------------------|
|----------------------------------------------------------------------|
|
| pm------------|
| e e e e e. s +e e
|----------------------------------------------------------------------|
|----------------------------------------------------------------------|
|----------------------------------------------------------------------|
|--4-----4--------4-----5----------------------------------------------|
|--2-----2--------2-----3-------------------2-----(2)-------------3----|
|-------------------------------------------0-----(0)-------------1----|

f#5 a5 b5
s s s s s t t s s s s s s s s s s
|-21p14-21-21p14-21p14-21p14-20-20p14-20-20p14-20p14-|
|----------------------------------------------------|
|----------------------------------------------------|
|----------------------------------------------------|
|----------------------------------------------------|
|----------------------------------------------------|
|
| pm---| pm---------|
| e e e e e e e e
|----------------------------------------------------|
|----------------------------------------------------|
|----------------------------------------------------|
|-----------------------2-----2-----2-----2-----4----|
|--4-----4-----4--------0-----0-----0-----0-----2----|
|--2-----2-----2-------------------------------------|
c5 b5 a5
~~
|--3--| |--3--|
t t t t e t t t t s s s q +e s s s
|-19h20p19p17----19h20p19p17-----------------------------14-16-|
|-------------19-------------19-19-19-19-----(19)\---/17-------|
|--------------------------------------------------------------|
|--------------------------------------------------------------|
|--------------------------------------------------------------|
|--------------------------------------------------------------|
|
| e e e e e s e s e
|--------------------------------------------------------------|
|--------------------------------------------------------------|
|--------------------------------------------------------------|
|--4-----------4--4-----------4--------5---4-----------2-------|
|--2-----------2--2-----------2--------3---2-----------0-------|
|--------------------------------------------------------------|

f#5 a5 b5
|------6-------| |------6-------| |---3---|
s s s s s s s s s s s s e e e t t t t s s
|-17-16-14----14-17s19p17p14-14h17p14h17p14---14-14----------------|
|----------17---------------------------------------19p17p14-17p14-|
|------------------------------------------------------------------|
|------------------------------------------------------------------|
|------------------------------------------------------------------|
|------------------------------------------------------------------|
|
| pm------| pm--------|
| e e e e e e e e
|------------------------------------------------------------------|
|------------------------------------------------------------------|
|------------------------------------------------------------------|
|-----------------------------2--------2----2-----2-----------4----|
|--4--------4--------4--------0--------0----0-----0-----------2----|
|--2--------2--------2---------------------------------------------|

c5 e5 f5
~~~
|------6-------| |------6-------|
s s s s s s s s s s s s s e. +e e
|---------------------------------------------------------|
|-14h15p14h15p14----14------------------------------------|
|----------------17----17p14-16p14----14------------------|
|----------------------------------16-----16----(16)\-/16-|
|---------------------------------------------------------|
|---------------------------------------------------------|
|
| pm---------------|
| e e e e e. s +e e
|---------------------------------------------------------|
|---------------------------------------------------------|
|---------------------------------------------------------|
|--4--------4--------4--------5---------------------------|
|--2--------2--------2--------3---------------2--(2)----3-|
|---------------------------------------------0--(0)----1-|

f#5 a5 b5
\1.5____/0____\1.5____/ \0.5
|-3--| |-3--| |-3-|
s s s +s +s +t +t s s s +s s s s s s s s s s
|------------------------------------------------------------------------------|
|------------------------------------------------------------------------------|
|-14h16p14-----(14)--(14)----(14)-(14)-13p11s10----(10)-11p10p9-11p10p9-10p9p8-|
|------------------------------------------------------------------------------|
|------------------------------------------------------------------------------|
|------------------------------------------------------------------------------|
|
| pm----------| pm----------------|
| e e e e e e e e
|------------------------------------------------------------------------------|
|------------------------------------------------------------------------------|
|------------------------------------------------------------------------------|
|---------------------------------------2-----2----------2-------2-------4-----|
|--4-----4-------------4----------------0-----0----------0-------0-------2-----|
|--2-----2-------------2-------------------------------------------------------|

c5 b5 a5
gtr vi
\1___| \1.5___/ \1.5/ \1.5
~~~~~~~~~
|-3-|
s s s a +e +s +s +s s e s s +e e
|------------------------------------------------------|
|------------------------------------------------------|
|-10p9p8-9---(9)-(9)----(9)-(9)p7-9-----8-6----(6)---6-|
|------------------------------------------------------|
|------------------------------------------------------|
|------------------------------------------------------|
|
| e e e e e s e s e
|------------------------------------------------------|
|------------------------------------------------------|
|------------------------------------------------------|
|--4----------4---4----------4----5-------4----------2-|
|--2----------2---2----------2----3-------2----------0-|
|------------------------------------------------------|

f#5 a5 b5 c5 e5 f5 f#5 a5 b5
\7
+q +q +h w w
|-----------------------------|----------------------|-----------------------|
|-----------------------------|----------------------|-----------------------|
|-(6)---(6)-----(6)-----------|----------------------|-----------------------|
|-----------------------------|----------------------|-----------------------|
|-----------------------------|----------------------|-----------------------|
|-----------------------------|----------------------|-----------------------|
|
| pm----| pm---| pm----| pm--| pm--|
| e e s s e e e s s e e e s s e e. s +e e e e s s e e e s s e
|-----------------------------|----------------------|-----------------------|
|-----------------------------|----------------------|-----------------------|
|-----------------------------|----------------------|-----------------------|
|-------------2--2--2-2-(2)-4-|-4-4-4-4-5------------|---------2-2-2-2-(2)-4-|
|--4--4--4--4-0--0--0-0--0--2-|-2-2-2-2-3----2-(2)-3-|-4-4-4-4-0-0-0-0--0--2-|
|--2--2--2--2-----------------|--------------0-(0)-1-|-2-2-2-2---------------|

b5 c5 b5 a5 f#5 a5 b5 c5 e5 f5
gtr iv
pm----------------| pm--| pm--| pm----|
e s s e s s e s e s e e e s s e e e s s e e e s s e e. s +e e
|-----------------------|---------------------|----------------------|
|-----------------------|---------------------|----------------------|
|-----------------------|---------------------|----------------------|
|-4-4-4-4-4-4-5---4---2-|---------2-2-2-2-2-4-|-4-4-4-4-5------------|
|-2-2-2-2-2-2-3---2---0-|-4-4-4-4-0-0-0-0-0-2-|-2-2-2-2-3----2-(2)-3-|
|-----------------------|-2-2-2-2-------------|--------------0-(0)-1-|

f#5 a5 b5 b5 c5 b5 a5c5 b5 a5
2/2 7/4
pm--| pm----| pm--------------|
e e s s e e e s s e e s s e s s e s e. e e s e. e q
|---------------------|-----------------------------------||
|---------------------|-----------------------------------||
|---------------------|-----------------------------------||
|---------2-2-2-2-2-4-|-4-4-4-4-4-4-5---4----5---4--------||
|-4-4-4-4-0-0-0-0-0-2-|-2-2-2-2-2-2-3---2--7-3---2--7-----||
|-2-2-2-2-------------|--------------------5--------5-----||

3rd chorus
a5 a5
2/2
pm----| ~ ~ pm----| ~ ~
e e e e e e e e q e e q e e e e e e e e e e q e e e e q
|-----------------|---------------|-----------------|---------------|
|-----------------|---------------|-----------------|---------------|
|-----------------|--------4------|-----------------|---------------|
|-2---------2-1-2-|-3--2-3----2-3-|-2---------2-1-2-|-3--1-2---1----|
|-0-0-0-0-0-------|---------------|-0-0-0-0-0-------|--------3---2--|
|-----------------|---------------|-----------------|---------------|

a5 a5
pm----| ~ ~ pm----| ~ ~~~~
e e e e e e e e q e e q e e e e e e e e e e q e e e e s +s +e
|-----------------|---------------|-----------------|-------------------------|
|-----------------|---------------|-----------------|-------------------------|
|-----------------|--------4------|-----------------|-------------------------|
|-2---------2-1-2-|-3--2-3----2-3-|-2---------2-1-2-|-3--1-2---1--------------|
|-0-0-0-0-0-------|---------------|-0-0-0-0-0-------|--------3---2b3==(2)r(2)-|
|-----------------|---------------|-----------------|-------------------------|

~~~~~~~~ ~ ~
+q +s +e. +e e e e q e e q e e
|----------------------------|---------------|
|----------------------------|---------------|
|----------------------------|--------4------|
|----------------------2-1-2-|-3--2-3----2-3-|
|-(2)b3===(2)-(2)-(2)r-------|---------------|
|----------------------------|---------------|

a5
pm----| ~ ~
e e e e e e e e q e e e e q
|-----------------|----------------|
|-----------------|----------------|
|-----------------|----------------|
|-2---------2-1-2-|-3--1-2---1-----|
|-0-0-0-0-0-------|--------3---2---|
|-----------------|----------------|

pm----| ~ ~ pm----| pm--------|


|-3-| |-3-|
e e e e e e e e q e e q e e e e e e e e e e q q q q q q
|-----------------|---------------|-----------------|--------------|
|-----------------|---------------|-----------------|--------------|
|-----------------|--------4------|-----------------|--------------|
|-2---------2-1-2-|-3--2-3----2-3-|-2---------2-1-2-|--------------|
|-0-0-0-0-0-------|---------------|-0-0-0-0-0-------|--------------|
|-----------------|---------------|-----------------|-5-0-1-5-0-1--|

out-chorus
q=149
a5 a5
pm----| ~~~ pm----|
w e e e e e e e e w e e e e e e e e
|----------||-----------------|------------|------------------|
|----------||-----------------|------------|------------------|
|----------||-----------------|------------|------------------|
|----------||-2-2-2-2-2-2-1-2-|-[3]--------|-2-2-2-2-2-2-1-2--|
|----------||-0-0-0-0-0-------|------------|-0-0-0-0-0--------|
|----------||-----------------|------------|------------------|

a5
gtr iii
~~~ ~~~~~~~~~~~~~~~~ pm----|
q. e +h a e e e e e e e e
|--------------------------------|---------------------|
|--------------------------------|---------------------|
|-------[4]b5==([4])--------(4)r-|---------------------|
|-[3]----------------------------|--2--2-2-2--2--2-1-2-|
|--------------------------------|--0--0-0-0--0--------|
|--------------------------------|---------------------|
|
| gtr vi
| h q q +h +h
|--------------------------------|---------------------|
|--------------------------------|---------------------|
|---------------------4b9========|=(4)-------(4)-------|
|--------------------------------|---------------------|
|--------------------------------|---------------------|
|--------------------------------|---------------------|

a5
~~~ pm----|
w e e e e e e e e
|------------------|-----------------|
|------------------|-----------------|
|------------------|-----------------|
|-[3]--------------|-2-2-2-2-2-2-1-2-|
|------------------|-0-0-0-0-0-------|
|------------------|-----------------|
|
| ~~~~~~~~~~~~~~~~~~~~
| +h +q. +e w
|------------------|-----------------|
|------------------|-----------------|
|-(4)----(4)---(4)r|=4---------------|
|------------------|-----------------|
|------------------|-----------------|
|------------------|-----------------|

a5
~~~ pm----| ~~~
q h. e e e e e e e e w
|--------------|-----------------|-------------------------|
|--------------|-----------------|-------------------------|
|--------------|-----------------|-------------------------|
|-[3]----------|-2-2-2-2-2-2-1-2-|-[3]---------------------|
|--------------|-0-0-0-0-0-------|-------------------------|
|--------------|-----------------|-------------------------|
|
| \2 \1.5
| w w h e e +e e
|--------------|-----------------|-------------------------|
|--------------|-----------------|-------------------------|
|--4-----------|-----------------|-------------------9b13==|
|--------------|-----------------|-------------------------|
|--------------|-----------------|-------------------------|
|--------------|-----------------|----------0----(0)-------|

a5
pm----| ~~~ ~~~~~~~~
e e e e e e e e q. e +h
|---------------------|-----------------------|
|---------------------|-----------------------|
|---------------------|-------[4]b5==([4])----|
|-2-2-2-2--2--2-1--2--|-[3]-------------------|
|-0-0-0-0--0----------|-----------------------|
|---------------------|-----------------------|
|
| ~~~
| h +q. +e +w
|---------------------|-----------------------|
|---------------------|-----------------------|
|-9-------(9)r====(9)-|-(9)-------------------|
|---------------------|-----------------------|
|---------------------|-----------------------|
|---------------------|-----------------------|

a5
~~~~~~ pm----| ~~~
a e e e e e e e e w
|----------------------|------------------|
|----------------------|------------------|
|-(4)r-----------------|------------------|
|------2-2-2-2-2-2-1-2-|-[3]--------------|
|------0-0-0-0-0-------|------------------|
|----------------------|------------------|
|
| w h. e e
|----------------------|------------------|
|----------------------|------------------|
|----------------------|------------9b14==|
|----------------------|------------------|
|----------------------|------------------|
|----------------------|------------------|

a5
pm----| ~~~~ ~~~~~~~~~~~~~~
e e e e e e e e q. e +h
|---------------------|--------------------------------|
|---------------------|--------------------------------|
|---------------------|----------[4]b5==([4])----------|
|--2--2-2-2--2--2-1-2-|-[3]----------------------------|
|--0--0-0-0--0--------|--------------------------------|
|---------------------|--------------------------------|
|
| ~~~~~~
| +h +h +q +e +h e
|---------------------|--------------------------------|
|---------------------|--------------------------------|
|-(9)-------(9)-------|-(9)r=(9)-(9)------------11b17==|
|---------------------|--------------------------------|
|---------------------|--------------------------------|
|---------------------|--------------------------------|

a5
~~~~~~ pm----|
a e e e e e e e e
|----------------------------|
|----------------------------|
|-(4)r-----------------------|
|--------2--2-2-2---2--2-1-2-|
|--------0--0-0-0---0--------|
|----------------------------|
|
| +h +h
|----------------------------|
|----------------------------|
|------(11)-------(11)-------|
|----------------------------|
|----------------------------|
|----------------------------|

a5
~~~~ pm----|
w e e e e e e e e
|-------------|--------------------|
|-------------|--------------------|
|-------------|--------------------|
|--[3]--------|---2--2-2-2-2-2-1-2-|
|-------------|---0--0-0-0-0-------|
|-------------|--------------------|
|
| +w +w
|-------------|--------------------|
|-------------|--------------------|
|-(11)--------|-(11)---------------|
|-------------|--------------------|
|-------------|--------------------|
|-------------|--------------------|

a5
~~~ ~~~~~~~~~~~~~~ pm----|
q. e +h a e e e e e e e e
|----------------------|----------------------------|
|----------------------|----------------------------|
|------[4]b5==([4])----|-(4)r-----------------------|
|-[3]------------------|--------2--2-2-2---2--2-1-2-|
|----------------------|--------0--0-0-0---0--------|
|----------------------|----------------------------|
|
| \3
| ~~~~~~~~~~~~~~~~~~~~~~~~~~~~~~~~~~~~~~~~~~~
| w +h +h
|----------------------|----------------------------|
|----------------------|----------------------------|
|-11r==================|======(11)-------(11)-------|
|----------------------|----------------------------|
|----------------------|----------------------------|
|----------------------|----------------------------|

a5 a5
~~~ pm----| ~~~ ~~~~~~~~~~~~~~ pm----|
w e e e e e e e e q. e +h a e e e e e e e e
|------------|-----------------|-----------------------|----------------------|
|------------|-----------------|-----------------------|----------------------|
|------------|-----------------|-------[4]b5==([4])----|-(4)r-----------------|
|-[3]--------|-2-2-2-2-2-2-1-2-|-[3]-------------------|------2-2-2-2-2-2-1-2-|
|------------|-0-0-0-0-0-------|-----------------------|------0-0-0-0-0-------|
|------------|-----------------|-----------------------|----------------------|
a5
~~~ pm----|
w e e e e e e e e
|------------|-----------------*|
|------------|-----------------*|
|------------|-----------------*|
|-[3]--------|-2-2-2-2-2-2-1-2-*|
|------------|-0-0-0-0-0-------*|
|------------|-----------------*|

duration legend
---------------
w - whole; h - half; q - quarter; e - 8th; s - 16th; t - 32nd; x - 64th; a -
acciaccatura
+ - note tied to previous; . - note dotted; .. - note double dotted
uncapitalized letters represent notes that are staccato (1/2 duration)
irregular groupings are notated above the duration line
duration letters will always appear directly above the note/fret number it
represents the
duration for. duration letters with no fret number below them represent rests.
multi-
bar rests are notated in the form wxn, where n is the number of bars to rest for.
low
melody durations appear below the staff

tablature legend
----------------
h - hammer-on
p - pull-off
b - bend
pb - pre-bend
r - bend release (if no number after the r, then release immediately)
/\ - slide into or out of (from/to "nowhere")
s - legato slide
s - shift slide
<n> - natural harmonic
[n] - artificial harmonic
n(n) - tapped harmonic
~ - vibrato
tr - trill
t - tap
tp - trem. picking
pm - palm muting
\n/ - tremolo bar dip; n = amount to dip
\n - tremolo bar down
n/ - tremolo bar up
/n\ - tremolo bar inverted dip
= - hold bend; also acts as connecting device for hammers/pulls
<> - volume swell (louder/softer)
x - on rhythm slash represents muted slash
o - on rhythm slash represents single note slash

misc legend
-----------
| - bar
|| - double bar
||o - repeat start
o|| - repeat end
*| - double bar (ending)
: - bar (freetime)
$ - segno
& - coda
tempo markers - <e/e./q/q./h/h.> = bpm(8/16=s8/s16), where s8 = swing 8ths, s16 =
swing 16ths