Sei sulla pagina 1di 3

e|-------3-----|-------3-----|-------3-----|-------5-----|

B|-----3---3---|-----0---0---|-----1---1---|-----3---3---|
G|---4-------4-|---0-------0-|---2-------2-|---2-------2-|
D|-------------|-------------|-------------|-0-----------|
A|-------------|-------------|-0-----------|-------------|
E|-3-----------|-0-----------|-------------|-------------|

C D G D
e|-------3-----|-------5-----|-------------|-------------|
B|-----1---1---|-----3---3---|-------3-----|-------3-----|
G|---0-------0-|---2-------2-|-----4---4---|-----2---2---|
D|-------------|-0-----------|---5-------5-|---4-------4-|
A|-3-----------|-------------|-------------|-5-----------|
E|-------------|-------------|-3-----------|-------------|

Em Am D
e|-------0-----|-------0-----|-------0-----|-------------|
B|-----0---0---|-----0---0---|-----1---1---|-------3-----|
G|---0-------0-|---0-------0-|---2-------2 |-----2---2---|
D|-------------|-------------|-------------|---4-------4-|
A|-------------|-------------|-0-----------|-5-----------|
E|-0-----------|-0-----------|-------------|-------------|

[Verse]
G Em Am D
e|-------------|-------0-----|-------0-----|-------------|
B|-------3-----|-----0---0---|-----1---1---|-------3-----|
G|-----4---4---|---0-------0-|---2-------2 |-----2---2---|
D|---5-------5-|-------------|-------------|---4-------4-|
A|-------------|-------------|-0-----------|-5-----------|
E|-3-----------|-0-----------|-------------|-------------|
Ricordi sbocciavan le vio- le

C D G D
e|-------------|-------------|-------------|-------------|
B|-------1-----|-------3-----|-------3-----|-------3-----|
G|-----0---0---|-----2---2---|-----4---4---|-----2---2---|
D|---2-------2-|---4-------4-|---5-------5-|---4-------4-|
A|-3-----------|-5-----------|-------------|-5-----------|
E|-------------|-------------|-3-----------|-------------|
Con le nostre parole non ci lasceremo

Em Am D
e|-------0-----|-------0-----|-------0-----|-------------|
B|-----0---0---|-----0---0---|-----1---1---|-------3-----|
G|---0-------0-|---0-------0-|---2-------2 |-----2---2---|
D|-------------|-------------|-------------|---4-------4-|
A|-------------|-------------|-0-----------|-5-----------|
E|-0-----------|-0-----------|-------------|-------------|
Mai mai e poi ma- i

G Em Am D
e|-------------|-------0-----|-------0-----|-------------|
B|-------3-----|-----0---0---|-----1---1---|-------3-----|
G|-----4---4---|---0-------0-|---2-------2 |-----2---2---|
D|---5-------5-|-------------|-------------|---4-------4-|
A|-------------|-------------|-0-----------|-5-----------|
E|-3-----------|-0-----------|-------------|-------------|
Vorrei dirti ora le stesse co- se

C D G D
e|-------------|-------------|-------------|-------------|
B|-------1-----|-------3-----|-------3-----|-------3-----|
G|-----0---0---|-----2---2---|-----4---4---|-----2---2---|
D|---2-------2-|---4-------4-|---5-------5-|---4-------4-|
A|-3-----------|-5-----------|-------------|-5-----------|
E|-------------|-------------|-3-----------|-------------|
Ma come fan presto amore ad appassir

Em Am D
e|-------0-----|-------0-----|-------0-----|-------------|
B|-----0---0---|-----0---0---|-----1---1---|-------3-----|
G|---0-------0-|---0-------0-|---2-------2 |-----2---2---|
D|-------------|-------------|-------------|---4-------4-|
A|-------------|-------------|-0-----------|-5-----------|
E|-0-----------|-0-----------|-------------|-------------|
le rose cosi' per noi

C D G Bm
e|-------------|-------------|-------------|-------------|
B|-------1-----|-------3-----|-------3-----|-------3-----|
G|-----0---0---|-----2---2---|-----4---4---|-----4---4---|
D|---2-------2-|---4-------4-|---5-------5-|---4-------4-|
A|-3-----------|-5-----------|-------------|-2-----------|
E|-------------|-------------|-3-----------|-------------|
L'amore che strappa i capelli e' perduto orma

C D G Bm
e|-------------|-------------|-------------|-------------|
B|-------1-----|-------3-----|-------3-----|-------3-----|
G|-----0---0---|-----2---2---|-----4---4---|-----4---4---|
D|---2-------2-|---4-------4-|---5-------5-|---4-------4-|
A|-3-----------|-5-----------|-------------|-2-----------|
E|-------------|-------------|-3-----------|-------------|
Non resta che qualche svogliata carezza

C D G
e|-------------|-------------|-------------|-------------|
B|-------1-----|-------3-----|-------3-----|-------------|
G|-----0---0---|-----2---2---|-----4---4---|-------------|
D|---2-------2-|---4-------4-|---5-------5-|-------------|
A|-3-----------|-5-----------|-------------|-------------|
E|-------------|-------------|-3-----------|-------------|
e un po' di tenere- zza
[Repeat the intro]
[etc.]

[Guitar solo (with respect to capo 2nd fret)]


[The solo is in Am, sounding in Bm with the capo]
G Em Am D
e|-------------|--------7-5-|-5-----------|-----------10-|
B|-8---------8-|-8----------|-------------|--------------|
G|-------------|------------|-------------|-7------------|
D|-------------|------------|-------------|--------------|
A|-------------|------------|-------------|--------------|
E|-------------|------------|-------------|--------------|

C D G D
e|-10----7h8-7-|-8--------8-|-8-------7-8-|-10---7h8-7-5-|
B|-------------|------------|-------------|--------------|
G|-------------|------------|-------------|--------------|
D|-------------|------------|-------------|--------------|
A|-------------|------------|-------------|--------------|
E|-------------|------------|-------------|--------------|

Em Am D
e|-------------|--------7-5-|-5-----------|--------------|
B|-8---------8-|-8----8-----|-------------|--------------|
G|-------------|------------|-------------|-7------------|
D|-------------|------------|-------------|--------------|
A|-------------|------------|-------------|--------------|
E|-------------|------------|-------------|--------------|