Sei sulla pagina 1di 4

From: "woobinda" <subsonica@NOSPAMhotmail.

com>
Date: Sat, 13 Mar 1999 15:34:32 +0100
--------
C.S.I. - A tratti

di Marco Bertolino <i097556@spv.ing.uniroma1.it>

Sol Do La# La

E|-----------------------------| s: slide
B|-----------------------------| h: hammer-on
G|-----------5-----3-----2-----| p: pull-off
D|-----5-----5-----3-----2-----| b: bend
A|-----5-----3-----1-----0-----| r: release
E|-----3-----3-----------------| ~: vibrato

Sol(ii)

P.M. ............................./

E|------------------------------------|
B|--(12)-x--x--(12)-x---(12)-(12)-x---|
G|---12--x--x---12--x----12---12--x---|
D|---12--x--x---12--x----12---12--x---|
A|---10--x--x---10--x----10---10--x---|
E|---10--x--x---10--x----10---10--x---|

N.B.

Il riff (1.) va ripetuto piy volte, e

alla fine si aggiunge il riff (2.)

1. 2.

E|---------------------------------|-------------------------------|
B|---------------------------------|-------------------------------|
G|------7~------7~---9b10r9b10r9---|-------------------------------|
D|---0-------0---------------------|---7b8r7---5---3s5---7b8-------|
A|---------------------------------|-------------------------------|
E|---------------------------------|-------------------------------|

Sol(ii)

A tratti percepisco tra indistinto brusio


Particolari in chiaro

Di chiara luce splendidi

Dettagli minimali in primo piano

Piy forti del dovuto e adesso so

Come fare e non fare, quando, dove, perche'

E ricordando che tutto va come va

Come fare e non fare, quando, dove, perche'

E ricordando che tutto va come va

Ma non va, non va, non va, non va ...

Nell'occhio inconsapevole di un cucciolo animale

Archivio vivente della Terra

Un battito di ciglia sonnolente racchiude un esistenza

Spazio determinato, costretto, dilatabile

Spazio determinato, costretto, dilatabile, mi incanta

Chi c'e', c'e', e chi non c'e', non c'e'

Chi c'e', c'e', e chi non c'e', non c'e'

3.

E|---------------------------------|
B|---------------------------------|
G|---10---10---10---10s9----6s7----|
D|---12---12---12---12s11---8s9----|
A|---------------------------------|
E|---------------------------------|

In toghe svolazzanti e lunghe tonache

Divise d'ordinanza, tute folgoranti

In fogge sempre nuove e innumerevoli colori

In abiti eleganti, con la camicia bianca e la cravatta blu

Chi e' stato, e' stato, e' chi e' stato, non e'
Chi c'e', c'e', e chi non c'e', non c'e'

Chi e' stato, e' stato, e' chi e' stato, non e'

Chi c'e', c'e', e chi non c'e', non c'e'

Consumati gli anni miei

Vistosi movimenti sulla Terra

Grandiosi, necessari, futili, patetici

Come fare e non fare, quando, dove, perche'

E ricordando che tutto va come va

Come fare e non fare, quando, dove, perche'

E ricordando che tutto va come va

Ma non va, non va, non va, non va ...

4.

E|-------------------------------|-----------------------------------|
B|-------------------------------|-----------------------------------|
G|-------------------------------|-----------------------------------|
D|---8b10r8~---7b8r7~---5b6r5~---|---8b10r8~---7b8r7~---5b6-6-6r5~---|
A|-------------------------------|-----------------------------------|
E|-------------------------------|-----------------------------------|

La# La Sol Do (x2)

Non [La#] fare di me un idolo, mi [La] brucero'

Se [Sol] divento un megafono, mi [Do] inceppero'

Cosa fare e non fare, non lo so

Quando, dove, perchh, riguarda solo me

Io so solo che tutto va, ma non va

Non va, non va, non va, non va

Sono un povero stupido, so solo che


Chi e' stato, e' stato, e' chi e' stato, non e'

Chi c'e', c'e', e chi non c'e', non c'e'

Chi c'e', c'e', e chi non c'e', non c'e'

Chi e' stato, e' stato, e' chi e' stato, non e'

Se tu pensi di fare di me un idolo, lo brucero'

Trasformami in megafono, mi inceppero'

Cosa fare e non ... (come le 2 strofe precedenti)

#-------------------------------ATTENZIONE
PREGO--------------------------------#
# Questo file e' opera esclusiva del suo autore e rappresenta la sua
personale #
# interpretazione della canzone. Potete usare questo file solo per uso
privato, #
# studio o esercizio. Se diffondete questo file (cosa che deve avvenire in
modo #
# tassativamente gratuito!) ricordatevi per favore di citarne la fonte.
Grazie. #
#---------------------------------------------------------------------------
----#

Lo spartito � stato prelevato dal seguente indirizzo:


http://www.geocities.com/SunsetStrip/Stage/6500/