Sei sulla pagina 1di 4

Main Theme

Music by Manaka Kataoka, Yasuaki Iwata, and Hajime Wakai


Arranged by Isac Saleh

Standard tuning: EADGBE (capo 1st fret)

S S S S S S S S S S S S S S S S S S S S S S S S
E||--2p-0h-2p-0h-2p-0h-2p-0h-2p-0-5p-3h-5p-3h-5p-3h-5p-3h-5p-3h-5p-3h-5p-3-|
B||--0----------------------------0----------------------------------------|
G||------------------------------------------------------------------------|
D||------------------------------------------------------------------------|
A||------------------------------------------------------------------------|
E||-------------------------------0----------------------------------------|

^ ^
Q. E Q Q Q Q H Q W Q
--7------9--10S----7----5---------|---------------------------------------|
--5--------------------------8----|--0--------7p----5----------------L----|
--7-------------------------------|-----------4---------------------------|
----------------------------------|--4------------------------------------|
--0-------------------------------|--7------------------------------------|
----------------------------------|---------------------------------------|

E E E E Q E E E E Q H W
--7--------8--10----7-----5----------|--5--------7----------------|
--------0-----------------------8----|----------------------------|
-----0-----0--------------7----------|--5--------4----------------|
-----------------------7-----7-------|----------------------------|
--------------------5----------------|----------------------------|
--8----------------------------------|----------------------------|

E E E E E E E E E E E E
-----10--10------------------10--------------|
--8----------6--8----------------10--11------|
----------------------0--------------10------|
-------------8-----7-----12------10------10--|
----------6-------------------8--------------|
---------------------------------------------|

^ ^
Q E E Q. E E E E E E E H E E H
--8----10------15------13S--10------------|-----0--------------0-----------|
-----------------------------8------------|--------3--------------3--------|
-----------12-------------------10--7-----|--0-----3--------0-----2--------|
-----------12--------------------------7--|-----0--1--------------3--------|
-------10---------------------------------|--------------------------------|
------------------------------------------|--------------------------------|

^
E Q W E Q E E Q Q Q Q
-----0------------------------|----------1--2-------------------|
----------3----------------L--|--4---------------4----2----0----|
--0-------0-------------------|---------------------------------|
----------2-------------------|-------3-------------------------|
----------3-------------------|---------------------------------|
----------3-------------------|--4---------------4--------------|

E E Q Q E E E E E E E E E E Q E E E E Q
-------------6----4--4--------4-----|--------------2---------------------|
-------------4-------4--7--7--4--4--|--4--------5-------4-----2-----0----|
------------------------4--6-----4--|------------------------------------|
--------6---------------------------|--------2----------------4----------|
-----6------------------------------|-----2----------------4-----4-------|
--4---------------4-----------------|--0----------------2----------------|

E E E E Q E E E E E E E E E E E E E E E E E E
----------------------------------2--|--1-----------0--1--3-----------------|
--2-----------4----2-----------------|-----------1--------------1--------1--|
--------4----------------4-----4-----|--------3--------------2--------0-----|
-----4-----4----------4-----4--------|-----3-----------------------3--------|
--2----------------2-----------------|--1-----------------0-----------------|
-------------------------------------|--------------------------------------|

|---3--|
E E E Q Q H E E
-----------------0----1--------0h--1--|
--3---------1---------0---------------|
-----0h--2------------0---------------|
--------------------------------------|
--------------------------------------|
--4-------------------3---------------|

^
|---3--|
E E E E E E E E E E E E E E E E E E E H.
--3-----------------------------1h--3--6--|--5------------------------------|
--2-----2-----2-----------2-----2---------|--3-----3-----3-----2------------|
-----0-----0-----0-----0-----0------------|--2--2-----2-----2--2------------|
------------------------------------------|--------------------2------------|
--4-----------------4---------------------|--0------------------------------|
------------------------------------------|---------------------------------|

^
E E T S. E E E E E E E Q
|---------6S-7--------5--2----------------|
|---7--0-----------0-----3-----2-----3----|
|*----------------------------------------|
|*--4-----------4-----4-----2-----2-------|
|---2--------------------0----------------|
|-----------------------------------------|

^
E E E E E E E E E E E E
--2-----------------2-----------0-----|
--3-----0--------------1--3-----------|
-----2--------------------------------|
--------------0--------------2--4-----|
-----------2-----2--3--------------3--|
--3-----------------------------------|

^
E E T S.E E E E E E E Q
--------9h-10-------9--7-----------------|
--7--------------------7-----------------|
-----------------------8------------8----|
--9--9--------0--------------11----------|
--9--------------9--------9------9-------|
--7--------------------7-----------------|

^ ^
E E E E E E E E Q Q E E E E E E Q H
--2-----------5--4-----2-------------||--2--------4--5----------7~--------|
--5-----5-----5--5-------------------||--5----------------------5~--------|
--4--4-----4--------------4----3----*||--4--3--4-----4-----4--------------|
--2-----------------------4----4----*||--2--------2-----2-----------------|
--2--------------------4-------------||--2--------------------------------|
--0-----------------2----------------||--0--------------------------------|

^
E E E E E E E E E E E E E E E Q E E Q. E E
--------------------------------0-----|-----2--2--2-------0------------------|
--2-----0-----------2-----0--------2--|----------------3-----<>0------0h--2--|
-----2--------0--------1--------------|--4----------------2------------------|
-----------0-----0--2--------2--------|--4----------------2------------------|
--------------------0-----------------|--2----------------0------------------|
--3-----------------------------------|--------------------------------------|

E E E E Q E E H H. H.
-----------0--2----0--------------|------------------------------||
--3--------0--3----------2--------|---------------<>0------------||
--------0----------------2--------|--4---------------------------||
-----0----------------2-----------|--4---------------------------||
-------------------0--------------|--2---------------------------||
--3-------------------------------|------------------------------||

Duration Legend
---------------
W - whole
H - half
Q - quarter
E - 8th
S - 16th
T - 32nd
X - 64th
. - note dotted
|-n-| - n-tuplets
Tablature Legend
----------------
L - tied note
x - dead note
g - grace note
(n) - ghost note
> - accentuded note
NH - natural harmonic
AH - artificial harmonic
TH - tapped harmonic
SH - semi harmonic
PH - pitch harmonic
h - hammer on
p - pull off
b - bend
br - bendRelease
pb - preBend
pbr - preBendRelease
brb - bendReleaseBend
\n/ - tremolo bar dip
\n - tremolo bar dive
-/n - tremolo bar Release up
/n\ - tremolo bar inverted dip
/n - tremolo bar return
-\n - tremolo bar Release down
S - shift slide
s - legato slide
/ - slide into from below or out of upwards
\ - slide into from above or out of downwards
~ - vibrato
W - wide vibrato
tr - trill
TP - tremolo picking
T - tapping
S - slap
P - pop
< - fade in
^ - brush up
v - brush down