Sei sulla pagina 1di 7

[Intro]

e|-1-----|-----------|-------|------|
B|---1---|-----------|-3-----|------|
G|-----2-|-----------|---3---|------|
D|-------|-4---------|-----5-|------|
A|-------|-----------|-------|-3----|
E|-------|-----------|-------|------|
F B7-9 Gm C7+9

[Verse]

F B7-9
There were bells on a hill
Gm Bbm
But I never heard them ringing
F Am G#m Gm C7+9
No I never heard them at all
F Gm C7+9
Till there was you

F B7-9
There were birds in the sky
Gm Bbm
But I never saw them winging
F Am G#m Gm C7+9
No I never saw them at all
F B7-9
Till there was you

[Chorus]

Bb Bbm F
Then there was music and wonderful roses
D Gm Gmmaj7 G7 C7 C7+5
They tell me in sweet fragrant meadows of dawn and you

[Verse]

F B7-9
There was love all around
Gm Bbm
But I never heard it singing
F Am G#m Gm C7+9
No I never heard it at all
F Gm C7+9
Till there was you
[Solo]

e|-----|---1-----|---------|-----------|---------|---3-5-3-|-5-3-5-3-|
B|-----|-1---3-1-|---------|-----1-4---|-3-1-----|---3-3-3-|-3-3-3-3-|
G|-2-3-|---------|-3-2-0---|---2-------|-----3-2-|-3-3-3-3-|-3-3-3-3-|
D|-----|---------|-------3-|-4---------|---------|---------|---------|
A|-----|---------|---------|-----------|---------|---------|---------|
E|-----|---------|---------|-----------|---------|---------|---------|
F B7-9 Gm

e|---6-8-6-|-8-6-8-6-|----10-|-8--7---|-6--|-5----|-1-1---|-----|
B|---6-6-6-|-6-6-6-6-|----10-|-5--4---|-3--|-5----|-----1-|-----|
G|-6-6-6-6-|-6-6-6-6-|----10-|-5--4---|-3--|-3----|-------|-2---|
D|---------|---------|-10-- -|-7--6---|-5--|-5----|-------|-----|
A|---------|---------|-------|--------|----|-3----|-------|---0-|
E|---------|---------|-------|--------|----|-3----|-------|-----|
Bbm F Am G#m Gm C7+9 F

e|-----------|-----1-|
B|-----------|---1---|
G|-----------|-2-----|
D|---1-4-----|-------|
A|-3---------|-------|
E|-----------|-------|
B7+9 Then there was

[Chorus]

Bb Bbm F
music and wonderful roses
D Gm Gmmaj7 G7 C7 C7+5
They tell me in sweet fragrant meadows of dawn and you

[Verse]

F B7-9
There was love all around
Gm Bbm
But I never heard it singing
F Am G#m Gm C7+9
No I never heard it at all
F
Till there was you

[Outro]

C E C7 F C# F F7+
Tiiiiiill there was youuuuuuuuuuuuu

Chords diagramm
1|111111| 2|111111| 3|-0----| 3|111111| |======| 6|111111|
|---2--| |-2----| |--1-2-| |------| |------| |------|
|-34---| |--3-4-| |---3-4| |-34---| |--1---| |-34---|
|------| |------| |------| |------| |-2-34-| |------|
F B7-9 B7-9 Gm C7+9 Bbm

5|111111| 4|111111| 6|111111| 2|111111| 3|111111| 3|111111|


|------| |------| |---2--| |----2-| |--2---| |---2--|
|-34---| |-34---| |-34---| |--3---| |-3----| |-3----|
|------| |------| |------| |-4----| |------| |----4-|
Am G#m Bb D Gmmaj7 G7

|======| 3|111111| |======| |======| 4|111111| |======|


|----1-| |------| |----1-| |---1--| |------| |----1-|
|--2---| |--3-4-| |--2---| |-23---| |--234-| |---2--|
|-3-4--| |------| |-3----| |------| |------| |-34---|
C7 C7 C E C# F7+

Intro Base:F Ebº Gm Bbm F Am Abm Gm C7/G F

E|-1---1--1---1--1------2---2--2---2--2-----|
B|-1---1--1---1--1------1---1--1---1--1-----|
G|-2---2--2---2--2------2---2--2---2--2-----|
D|-3---3--3---3--3------1---1--1---1--1-----|
A|------------------------------------------|
E|------------------------------------------|

E|-3---3--3---3--3------6---6--6---6--6-----|
B|-3---3--3---3--3------6---6--6---6--6-----|
G|-3---3--3---3--3------6---6--6---6--6-----|
D|-3---3--3---3--3------6---6--6---6--6-----|
A|------------------------------------------|
E|------------------------------------------|

E|--1------5----4----3-------------1---|
B|--1------5----4----3-------3-----1---|
G|--2------5----4----3-------3-----2---|
D|-3-------------------------2-----3---|
A|---------------------------3---------|
E|-------5----4----3-------------------|
Intro Solo:

(2 vezes)

E|-1--------------------------------|
B|---1----------3-------------------|
G|-----2-----------3----------------|
D|-------4------------5-------------|
A|-----------------------3----------|
E|----------------------------------|

Riff 1:

E|-1--------------------------------|
B|--1-----1----------3----2---------|
G|---2-----2----------3----3--------|
D|----3-----4----------5----3-------|
A|----------------------------------|
E|----------------------------------|

E|--5--4--3---------1---------------|
B|--5--4--3----3----1---------------|
G|--5--4--3----3----2---------------|
D|-------------2----3---------------|
A|-------------3--------------------|
E|-5--4--3--------------------------|
(Riff 1)
F Ebº
There were bells on a hill
Gm Bbm
But I never heard them ringing
F Am G#m Gm C7/9
No I never heard them at all
F Gm C7/9
Till there was you

(Riff 1)
F Ebº
There were birds in the sky
Gm Bbm
But I never saw them winging
F Am G#m Gm C7/9
No I never saw them at all
F B7/9
Till there was you
Riff 2:

E|------------------1---------------|
B|-1--------------1-----------------|
G|---2---------2--------------------|
D|----------3-----------------------|
A|-------3--------------------------|
E|----------------------------------|

E|--------------------------------------|
B|-3--2--1------------------------------|
G|--------------------------------------|
D|-----------------2-----5-5-5-4-4-4-3~~|
A|-----------0--3-----------------------|
E|--------------------------------------|

E|--------------------|
B|-3/5~~~~~~~~5/10----|
G|--------------------|
D|--------------------|
A|--------------------|
E|--------------------|

(Riff 2)
Bb Bbm
Then there was music
F
And wonderful roses
D Gm Gm7 G7 C7 C7/5+
They tell me in sweet fragrant meadows of dawn and you

Variação do início do Riff 1:


Variação do início do Riff 1:

E|-1p0-----------| (ATENÇÃO: essa parte substitui somente a


B|-----1-1h3-----| primeira parte do riff, onde na letra
G|---------------| se canta 'There was love', depois
D|---------------| seguir igualmente o riff 1.
A|---------------| Qualquer dúvida, procure pela música)
E|---------------|

(Riff 1 variado)
F Ebº
There was love all around
Gm Bbm
But I never heard it singing
F Am G#m Gm C7/9
No I never heard it at all
F Gm C7
Till there was you
Solo: F Ebº Gm Bbm F Am Abm Gm C7/G F

E|-------1----------------------------|
B|-----1---3-1---------------4--------|
G|-2-3--------3-2-0------2-5---5/7-5--|
D|-------------------3-4--------------|
A|------------------------------------|
E|------------------------------------|

E|--------3h5-3h5-3h5-3------6--6h8-6-6h8-6-6h8-6------|
B|--------3h5-3h5-3h5-3---------6h8-6-6h8-6-6h8-6------|
G|-3-2-3--3h5-3h5-3h5-3-3/6-6---6h8-6-6h8-6-6h8-6------|
D|-----------------------------------------------------|
A|-----------------------------------------------------|
E|-----------------------------------------------------|

E|---10-----8--7--6------5----------|
B|---10-----10-9--8------5----------|
G|---10-----9--8--7------3----------|
D|---10------------------4----------|
A|-8--------------------------------|
E|----------------------------------|

E|-1---------------------1----------|
B|---1-----------------1------------|
G|-----2-------------2--------------|
D|---------------1-4----------------|
A|-----------0-3--------------------|
E|----------------------------------|

(Riff 2)
Bb Bbm
Then there was music
F
And wonderful roses
D Gm Gm7 G7 C7 C7/5+
They tell me in sweet fragrant meadows of dawn and dew

(Riff 1 variado)
F Ebº
There was love all around
Gm Bbm
But I never heard it singing
F Am G#m Gm C7/9
No I never heard it at all
F
Till there was you

Final:

E|--------------------------|
B|---5-5----4-4----5-5------|
G|---5-5----4-4----5-5------|
D|---5-5----4-4----5-5------|
A|-3------2------3----------|
E|--------------------------|

C E C7 F C# F F7+
Tiiiill there was youuuuuuuuuu

Solo Final:

E|-10h13-10----11-9-11-9-----1-1--1--1-1-1-1-1-----0----|
B|-10----10----9--9-9--9-----1-1--1--1-1-1-1-1-----1----|
G|---------------------------2-2--2--2-2-2-2-2-----2----|
D|---------------------------3-3--3--3-3-3-3-3-----3----|
A|------------------------------------------------------|
E|------------------------------------------------------|