Sei sulla pagina 1di 4

Hosanna tab by Hillsong United

ULTIMATE
GUITAR
COM

Hosanna - Hillsong United


Tuning: Standard (EADGBe)

[Intro]
e|--------------------------------------------------|
B|-----9--------9----4------4----5---5----4-------4-|
G|----9-----9h11----4----4h6----6---6----4----4h6---|
D|-11----11-------6----6------7---7----6----6-------|
A|--------------------------------------------------|
E|--------------------------------------------------|

e|--------------------------------------7-------------9---12---|
B|-----9--------9----4------4------5-----5------7------7--12---|
G|----9-----9h11----4----4h6------6------------8---------------|
D|-11----11-------6----6------6s7-----7------9------9----------|
A|-------------------------------------------------------------|
E|-------------------------------------------------------------|

[Verse 1]
e|-----------------------|
B|-----9-----2--4----4---|
G|----9----2------4----4-|
D|-11----4----------4----|
A|-----------------------|
E|-----------------------|

[Post-Verse]
e|---------------------------------12-|
B|-----9-----9-----9----12-----10--12-|
G|----9-----9-----9----9------9-------|
D|-11----11----11----11----11---------|
A|------------------------------------|
E|------------------------------------|

[Verse 2]
e|-----------------------|
B|-----9-----2--4----4---|
G|----9----2------4----4-|
D|-11----4----------4----|
A|-----------------------|
E|-----------------------|

Page 1/4
[Chorus 1]
e|-----0-------0-------0-------0-----|
B|---0---0---0---0---0---0---0---0---|
G|-----------------------------------|
D|-----------------------------------|
A|---------0-------2-------4---------|
E|-4---------------------------------|

e|-----0-------0-------0-------0-----|
B|---0---0---0---0---0---0---0---0---|
G|-----------------------------------|
D|-----------------------------------|
A|-0-------4-------2-------2---------|
E|-----------------------------------|

e|-----0-------0-------0-------0-----|
B|---0---0---0---0---0---0---0---0---|
G|-----------------------------------|
D|-----------------------------------|
A|---------0-------2-------4---------|
E|-4---------------------------------|

e|-----0-------0---------------------|
B|---0---0---0---0-------------------|
G|-----------------------------------|
D|-----------------------------------|
A|-0-------2-------------------------|
E|-----------------------------------|

[Pre-Verse]
e|---------------------------------12-|
B|-----9-----9-----9----12-----10--12-|
G|----9-----9-----9----9------9-------|
D|-11----11----11----11----11---------|
A|------------------------------------|
E|------------------------------------|

[Verse 3]
e|-----------------------|
B|-----9-----2--4----4---|
G|----9----2------4----4-|
D|-11----4----------4----|
A|-----------------------|
E|-----------------------|

Page 2/4
[Chorus]
E/G# A B C#m
A C#m B B
E/G# A B C#m
A B

[Bridge] (SOLO)
e|-------------------------------------|
B|-12-12-12-12-12-9-7-9----------------|
G|-------------------------------------| X2
D|-------------------------------------|
A|-------------------------------------|
E|-------------------------------------|

e|--------------------------------------|
B|-10-10-10-10-10-9-7-5-4-4-4-4-5-5-7-7-|
G|--------------------------------------|
D|--------------------------------------|
A|--------------------------------------|
E|--------------------------------------|

e|--------------------------------------|
B|-12-12-12h14-12-12-9-7-9--------------|
G|--------------------------------------| X2
D|--------------------------------------|
A|--------------------------------------|
E|--------------------------------------|

e|-------11----11----11-12s14-14-14-14-14-14-14-14----|
B|-10-10----10----10----------------------------------|
G|----------------------------------------------------|
D|----------------------------------------------------|
A|----------------------------------------------------|
E|----------------------------------------------------|

[Bridge]
A B
E C#m
A B C#m

[Post Bridge]
e|---------9--------------9--------------|
B|------12---12--------12---12--------12-|
G|----9---------9----9---------9----9----|
D|-11-------------11-------------11------|
A|---------------------------------------|
E|---------------------------------------|

Page 3/4
[Chorus]
e|-----0-------0-------0-------0-----|
B|---0---0---0---0---0---0---0---0---|
G|-----------------------------------|
D|-----------------------------------|
A|---------0-------2-------4---------|
E|-4---------------------------------|

e|-----0-------0-------0-------0-----|
B|---0---0---0---0---0---0---0---0---|
G|-----------------------------------|
D|-----------------------------------|
A|-0-------4-------2-------2---------|
E|-----------------------------------|

e|-----0-------0-------0-------0-----|
B|---0---0---0---0---0---0---0---0---|
G|-----------------------------------|
D|-----------------------------------|
A|---------0-------2-------4---------|
E|-4---------------------------------|

e|-----0-------0---------------------|
B|---0---0---0---0-------------------|
G|-----------------------------------|
D|-----------------------------------|
A|-0-------2-------------------------|
E|-----------------------------------|

[Chorus]
E/G# A B C#m
A C#m B B
E/G# A B C#m
A B

End on E

************************************

| h Hammer-on
| s Slide

************************************

Page 4/4