Sei sulla pagina 1di 4

19/7/2019 CHAMAN, Maná: Tab p/Bajo

Intro

s s s s q E s q s s s s H s s s s s s s q h s s s s H s | s | E s
|----------------|----------7-6---|------------|----------7---6-------|
|----------------|--------------7-|------------|------------------7-7-|
|0-2-2-0-2-2-2-2-|0-2-2-0-2-------|0-2-2-0-2-2-|0-2-2-0-2-------------|
|----------------|----------------|------------|----------------------|

e e | s e e e e | s s s e e e | s e e e e | s e e
|----------------|------------------|----------------|----------------|
|----------0-2-0-|----------0-2-2-4-|------------0-2-|----------0-4-0-|
|2-2-------------|0-0---------------|2-2-------2-----|0-0-------------|
|------3-3-------|------2-2---------|------3-3-------|------2-2-------|
e e e e e e e e

Lyrics 1

e e | s e e e e | s e e e e | s e e e e | s e e
|----------------|----------------|----------------|----------------|
|----------0-2-0-|----------0-2-4-|----------0-2-0-|----------0-4-0-|
|2-2-------------|0-0-------------|2-2-------------|0-0-------------|
|------3-3-------|------2-2-------|------3-3-------|------2-2-------|
e e e e e e e e

e e | s e e e e | s s s e e e | s e e e e | s e e
|----------------|------------------|----------------|----------------|
|----------0-2-0-|----------0-4-4-0-|----------0-2-0-|----------0-2-4-|
|2-2-------------|0-0---------------|2-2-------------|0-0-------------|
|------3-3-------|------2-2---------|------3-3-------|------2-2-------|
e e e e e e e e

e e | s e e e e | s e e e e | s e e e e | s e e
|----------------|----------------|----------------|----------------|
|----------0-2-0-|----------0-4-0-|----------0-2-0-|----------0-2-4-|
|2-2-------------|0-0-------------|2-2-------------|0-0-------------|
|------3-3-------|------2-2-------|------3-3-------|------2-2-------|
e e e e e e e e

e e | s e e e e | s e e e e | s e e e e | s e e
|----------------|----------------|----------------|----------------|
|----------0-2-0-|----------0-4-0-|----------0-2-0-|----------0-2-4-|
|2-2-------------|0-0-------------|2-2-------------|0-0-------------|
|------3-3-------|------2-2-------|------3-3-------|------2-2-------|
e e e e e e e e

e e | s e e e e | s e e e e | s e e e e E s e e
|----------------|----------------|----------------|--------------|
|----------0-2-0-|----------0-4-0-|----------0-2-0-|--------0-4-0-|
|2-2-------------|0-0-------------|2-2-------------|0-0-0---------|
|------3-3-------|------2-2-------|------3-3-------|------2-------|
e e e e e e q

Chorus

https://acordes.lacuerda.net/mana/chaman-3.shtml 1/4
19/7/2019 CHAMAN, Maná: Tab p/Bajo
e e | e e e s e | e e e s e e e | e e e s e
|----------------|----------------|----------------|--------------------|
|----------------|----------------|----------------|--------------------|
|2-2---5-5-7-7-7-|------5-5-7-7-7-|0-0---5-5-7-7-7-|--------------------|
|----------------|3-3-------------|----------------|3-3-x-3-2-2-5-5-5-5-|
e e e e s e e e s s s e

e e | e e e s e | e e e s e e e | e e e s e
|----------------|----------------|----------------|--------------------|
|----------------|----------------|----------------|--------------------|

|2-2---5-5-7-7-7-|------5-5-7-7-7-|0-0---5-5-7-7-7-|--------------------|
|----------------|3-3-------------|----------------|3-3-3-3-3-2-2-5-5-5-|
e e e e s s s e e e s e

Lyrics 2

e e | s e e e e | s e e e e | s e e e e | s s s e
|----------------|----------------|----------------|------------------|
|----------0-2-0-|----------0-4-0-|----------0-2-0-|----------0-4-4-0-|
|2-2-------------|0-0-------------|2-2-------------|0-0---------------|
|------3-3-------|------2-2-------|------3-3-------|------2-2---------|
e e e e e e e e

e e | s e e e e | s e e e e | s e e e q s s s e
|----------------|----------------|----------------|----------------|
|----------0-2-0-|----------0-4-0-|----------0-2-0-|--------0-4-4-0-|
|2-2-------------|0-0-------------|2-2-------------|0-0-------------|
|------3-3-------|------2-2-------|------3-3-------|------2---------|
e e e e e e q

Chorus

e e | e e e s e | e e e s e e e | e e e s e |
|----------------|----------------|----------------|----------------|
|----------------|----------------|----------------|----------------|
|2-2---5-5-7-7-7-|------5-5-7-7-7-|0-0---5-5-7-7-7-|----------------|
|----------------|3-3-------------|----------------|3-3---2-2-5-5-5-|
e e e q e e e s e

e e | e e e s e | e e e s e e e | e e e s e |
|----------------|----------------|----------------|----------------|
|----------------|----------------|----------------|----------------|
|2-2---5-5-7-7-7-|------5-5-7-7-7-|0-0---5-5-7-7-7-|----------------|
|----------------|3-3-------------|----------------|3-3---2-2-5-5-5-|
e e e q e e e s e

Guitar Solo

e e | e e e s e | e e e | e e e s e | s s s e
|----------------|----------------|----------------|----------------|
|----------------|----------------|----------------|--------0-4-4-0-|
|2-2---5-5-7-7-7-|--------------4-|0-0---5-5-7-7-7-|----------------|
|----------------|3-3---2-2-5-5---|----------------|3-3---2---------|

https://acordes.lacuerda.net/mana/chaman-3.shtml 2/4
19/7/2019 CHAMAN, Maná: Tab p/Bajo
e e e e e s e q q

e e | e e e s e | e e e | e e e s e | s s s e
|----------------|----------------|----------------|----------------|
|----------------|----------------|----------------|--------0-4-4-0-|
|2-2---5-5-7-7-7-|--------------4-|2-2---5-5-7-7-7-|----------------|
|----------------|3-3---2-2-5-5---|----------------|3-3---2---------|
e e e e e s e e q

Bass Solo

e e E s e e e e E s s s e e e E s e e e e E s s s e
|----------------|------------------|----------------|------------------|
|----------0-2-0-|----------0-4-4-0-|----------0-2-0-|----------0-4-4-0-|
|2-2-2-----------|0-0-0-------------|2-2-2-----------|0-0-0-------------|
|------3-3-------|------2-2---------|------3-3-------|------2-2---------|
e e e e e e e e

Lyrics 3

e e | s e e e e | s e e e e | s e e e e | s s s e
|----------------|----------------|----------------|------------------|
|----------0-2-0-|----------0-4-0-|----------0-2-0-|----------0-4-4-0-|
|2-2-------------|0-0-------------|2-2-------------|0-0---------------|
|------3-3-------|------2-2-------|------3-3-------|------2-2---------|
e e e e e e e e

e e | s e e e e | s e e e e | s e e e q s s s e
|----------------|----------------|----------------|------------------|
|----------0-2-0-|----------0-4-0-|----------0-2-0-|----------0-4-4-0-|
|2-2-------------|0-0-------------|2-2-------------|0-0---------------|
|------3-3-------|------2-2-------|------3-3-------|------2-2---------|
e e e e e e e e

e e | s e e e e | s s s e e e | s e e s s s s s s s s h
|----------------|------------------|----------------|------------------|
|----------0-2-0-|----------0-4-4-0-|----------0-2-0-|------------------|
|2-2-------------|0-0---------------|2-2-------------|0-0-0-0-0-0-0-0---|
|------3-3-------|------2-2---------|------3-3-------|----------------2-|
e e e e e e

Chorus

e e | e e e s e | e e e s e e e | e e e s e e
|----------------|----------------|----------------|------------------|
|----------------|----------------|----------------|------------------|
|2-2---5-5-7-7-7-|------5-5-7-7-7-|0-0---5-5-7-7-7-|----------------4-|
|----------------|3-3-------------|----------------|3-3-(3)-2-2-5-5---|
e e e q s e e e s

e e | e e e s e | e e e s e e e | e e e s e
|----------------|----------------|----------------|------------------|
|----------------|----------------|----------------|------------------|
|2-2---5-5-7-7-7-|------5-5-7-7-7-|0-0---5-5-7-7-7-|------------------|

https://acordes.lacuerda.net/mana/chaman-3.shtml 3/4
19/7/2019 CHAMAN, Maná: Tab p/Bajo
|----------------|3-3-------------|----------------|3-3-(3)-2-2-5-5-5-|
e e e q s e e e s e

Bridge

| | | | E
|------|------|------|---------|
|------|------|------|---------|
|------|------|------|---3-----|
|10\---|----10|10\---|-----3-3-|
q e q s q

Outro

e e | e s | e e e e | e s
||--------------------|----------------|------------------|
||*-------------------|----------------|------------------|
||*-5-5-------2-2-----|------3-3-------|5-5-------2-2-----|
||--------3-3-----5-5-|5-5-------3-3-3-|------3-3-----5-5-|
e e s s e e e s e e e s s

| e e e e | e s | e e e e | e s
|----------------|------------------|----------------|------------------|
|----------------|------------------|----------------|------------------|
|------3-3-------|5-5-------2-2-----|------3-3-------|5-5-------2-2-----|
|5-5-------3-3-3-|------3-3-----5-5-|5-5-------3-3-3-|------3-3-----5-5-|
e e e s e e e s s e e e s e e e s s

e e e e | e s | e e
|----------------------------|------------------|-----------------||
|----------------------------|------------------|----------------*||
|------------------------3-3-|5-5-------2-2-----|------3-3-------*||
|5-5-5-5-5-5-5-5-5-5-5-5-----|------3-3-----5-5-|5-5-------3-3-3--||
s s s s s s s s s s s s e e s s e e e s e

https://acordes.lacuerda.net/mana/chaman-3.shtml 4/4