Sei sulla pagina 1di 1

Red Hot Chili Peppers - Dark Necessities

[Intro]
G|------------------------------------------------|------------------------------------------------|
D|------------------------------------------------|------------------------------------------------|
A|------------------------------------------------|------------------------------------------------|
E|16-16-16-16-16-16-16-16-16-16-16-16-16-16-16-16-|13-13-13-13-13-13-13-13-13-13-13-13-13-13-13-13-|

G|------------------------------------------------|------------------------------------------------|
D|------------------------------------------------|------------------------------------------------|
A|15-15-15-15-15-15-15-15-15-15-15-15-15-15-15-15-|13-13-13-13-13-13-13-13-13-13-13-13-13-13-13-13-|
E|------------------------------------------------|------------------------------------------------|

Repeat 4 times then...


S P P P P S S P P P P S S P P P P S S P P P P
G|---5--3--5-5x--------5--3--5-5X-|------5--3--5-5x--------5--3--5-5X-|
D|--------------------------------|-----------------------------------|
A|3-----x--x-x---------x--x--x-x--|1--3-----x--x-x---------x--x--x-x--|
E|--------------3--4--------------|-----------------3--4--------------|

[Verse](X2)
S S P P P P S S P P P P S S P P P P S S P P P P
G|------5--3--5-5x--------5--3--5-5X-|------5--3--5-5x--------5--3--5-5X-|
D|-----------------------------------|-----------------------------------|
A|1--3-----x--x-x---------x--x--x-x--|1--3-----x--x-x---------x--x--x-x--|
E|-----------------3--4--------------|-----------------3--4--------------|

S S P P P P S S P P P S P P P P S S P P P P
G|----------------------------------|---5--3--5-5x--------5--8-7-5X-|
D|------3-----3x---------6--6--5----|-------------------------------|
A|--------------------------------6-|3-----x--x-x--1--3---x--x-x-x--|
E|4--1----1-1---1--1-/4-------------|-------------------------------|

[Chorus](X2)
G|---------13----------13---13----12-|------10-------10----12-------|
D|-----------------------------------|---------------------------13-|
A|11-11-11----11-11-11----11---10----|8-8-8----8-8-8----10----------|
E|-----------------------------------|------------------------11----|

G|--------------------8----12-|------------------8----12-|
D|------10-------10-----------|------8-------8-----------|
A|------------------6---10----|----------------6---10----|
E|8-8-8----8-8-8--------------|6-6-6---6-6-6-------------|

[Bridge]
G|8-7-5-----------------|6-5-3-----------------|10-8-----------------------|
D|------8-6-5-----------|------6-5-3-----------|-----11-10-8---------------|
A|------------8-7-6-6-6-|------------6-5-4-4-4-|-------------11-10-9-8-8-8-|
E|----------------------|----------------------|---------------------------|

G|13-12-10-------------------------|
D|---------13-12-10----------------|
A|------------------13-12-11-11-11-|
E|---------------------------------|

G|8-7-5-----------------|6-5-3-----------------|10-8-----------------------|
D|------8-6-5-----------|------6-5-3-----------|-----11-10-8---------------|
A|------------8-7-6-6-6-|------------6-5-4-4-4-|-------------11-10-9-8-8-8-|
E|----------------------|----------------------|---------------------------|

[Outro]
G|-----------------|-----------------|-----------------|-----------------|
D|-----------------|-----------------|-----------------|-----------------|
A|---------------1-|3---3-5-1---1-/3-|---------------1-|3---3-5-1---1-/3-| X2
E|4---4-8/1---1----|-----------------|4---4-8/1---1----|-----------------|

G|-----------------------|------------------4---5-|
D|------6-------6---6--5-|------3-------3---------|
A|-----------------------|----------------2---3---| X2
E|4-4-4---4-4-4---4--3---|1-1-1---1-1-1-----------|

G|-----------------|-----------------|-----------------|-----------------|
D|-----------------|-----------------|-----------------|-----------------|
A|---------------1-|3---3-5-1---1-/3-|---------------1-|3---3-5-1---1-/3-| X2
E|4---4-8/1---1----|-----------------|4---4-8/1---1----|-----------------|