Sei sulla pagina 1di 1

Avicii - Levels

note basse

e|-------------------------------|
B|-------------------------------|
G|-------------------------------|
D|-------------------------------|
A|------- 7-7-7------------------|
E|-9-9-9--------7-7-7--5--5-55---|

melodia

e|-------------------------97---|
B|-7-5-5--5-5-5-5-4-4-5-5-----9--|
G|-------------------------------|
D|-------------------------------|
A|-------------------------------|
E|-------------------------------|

e|-------------------------97----|
B|-7-5-5--5-5-5-5-------------9--|
G|----------------6-6-4-4--------|
D|-------------------------------|
A|-------------------------------|
E|-------------------------------|

Accordi con capotasto al 4 tasto

A-/Do/Sol/Fa