Sei sulla pagina 1di 3

Cifra Club - Chris Isaak - Wicked Game

Wicked Game

Chris Isaak

Tom: A

https://www.cifraclub.com.br/chris-isaak/wicked-

Tom: A https://www.cifraclub.com.br/chris-isaak/wicked- (intro 2x) Bm A E No, I don't want to fall in love.

(intro 2x) Bm A E

No, I don't want to fall in love. (This world |---------------------------------2----0---- is only gonna break your heart)

{Part 2} {Part 2} With you. With you. (This world is only gonna

|----------------------4---2---------------- break your heart)

|-------------------------------------------

|-----------------------2---1---------------

|0b--7s0-0b--7-5-3-2-0--------------3----3--

Bm A E {riff 2}

|------------------------------------------- (verso 2) Bm A E {riff 1}

|-------------------------|

|2-2----------------------|

|---4-4-2--1---1--2--4b---|

|---------2---2-----------|

|-------------------------|

|-------------------------|

What a wicked game to play, to make me feel this way.

Bm A E {riff 2} What a wicked thing to do, to let me dream of

you. Bm A E {riff 1}

(parte 1) 00:00-00:17

What a wicked thing to say, you never felt this way.

(parte 2) 00:18-00:34

Bm A E {riff 2} What a wicked thing to do, to make me dream

of you and,

(riff 1)

(riff 2)

(refrão)

|------------------------|

Bm A E {riff 1}

|------------------------|

No, I don't want to fall in love. (This world

|----2---1--------1-2-4--|

is only gonna break your heart)

|--4---2--------2--------|

Bm A E {riff 2}

|------------------------|

No, I don't want to fall in love. (This world

|------------------------|

is only gonna break your heart) {Part 1} {Part 2}

With you.

(verso 1)

Bm A E {riff 1} The world was on fire and no one could save

(verso 3) Bm A E {riff 1}

me but you. Bm A E {riff 2}

The world was on fire and no one could save me but you.

It's strange what desire will make foolish people do.

Bm A E {riff 2} It's strange what desire will make foolish

Bm A E {riff 1}

people do.

I never dreamed that I'd meet somebody like

Bm A E {riff 1}

you. Bm A E {riff 2}

I never dreamed that I'd love somebody like you.

(refrão)

Bm A E {riff 1} No, I don't want to fall in love. (This world

1 de 3

is only gonna break your heart)

I never dreamed that I'd love somebody like you.

Bm A E {riff 2}

I never dreamed that I'd loose somebody like

you no,

(refrão) Bm A E {riff 1}

No, I don't want to fall in love. (This world is only gonna break your heart)

16-05-2017 01:05

Cifra Club - Chris Isaak - Wicked Game

Bm A E {riff 2}

No, I don't want to fall in love. (This world is only gonna break your heart)

With you. With you. (This world is only gonna

A 1 2 3
A
1
2
3
Bm 2 3 4
Bm
2
3
4
E 1 2 3
E
1
2
3

https://www.cifraclub.com.br/chris-isaak/wicked-

break your heart)

Bm A E Nobody loves no one.

Cifra Club - Chris Isaak - Wicked Game

https://www.cifraclub.com.br/chris-isaak/wicked-