Sei sulla pagina 1di 175

Guitar Tabs eBooks on eBay!

AlmostFreeBusiness
eBay Store

The Highest Quality!


The Best Prices!
&
The Highest Customer Satisfaction!

Thank you for your interest!


Janie
Rock N Roll Ain't Noise Pollution.tab

Rock N Roll Ain't Noise Pollution

Intro and Chorus:


E A E A
|------------------|--------------------|--------------------|-------------------|
|--------9-10---12-|---10---10---12--8--|--5------9-10---12--|---10---10----8--5-|
|--------9--9---11-|----9----9---11--7--|--4------9--9---11--|----9----9----7--4-|
|------------------|--------------------|--------------------|-------------------|
|------------------|--------------------|--------------------|-------------------|
|------------------|--------------------|--------------------|-------------------|
Rock'n'Roll__ ain't noise pollu - tion. Rock'n'Roll__ ain't gon--na die

Spoken:
"Hey, there, all you middle men. Throw away your fancy clothes. And while
you're out there sitting on a fence, so get of your ass and come down here,
cause Rock'N'Roll ain't no riddle man. To me it makes good, good sense."

First verse:
[E]Heavy decibels are playing [A]on my guitar. We got
vi[E]brations coming up from the flo[A]or. Well, just
list[E]ning to the rock that's giving [A]too much noise. Are you
[E]deaf, you wanna hear some more [A]We're just
talk[E]ing about the fu[A]ture for[B]get about the past [E]It'll always
[A]be with us It's never gonna die, never gonna die.
Chorus:
Second verse:
I took a look inside your bedroom door
You looked so good lying on your bed.
Well, I asked you if wanted any rhythm and love
You said you wanna rock'n'roll instead.
We're just talking about the future
Forget about the past
It'll always be with us
It's never gonna die, never gonna die.
back_in_black.crd

Back In Black
AC-DC

E D A (little lick) E D A A-G# A#-A B-A# C-B


(one time, and two times singing)
Chorus:
(E) A E B A-B, A E B A-B, G D A G-A, G D A G-A
A E B A-B, A E B A-B, G D D D
E D A (lick) E D A A-G# A#-A B-A# C-B
(two times singing)
Chorus
E D A E,E,E D A E A E A E
(four times while guitar solo)
Chorus
riff in E (twice)
riff in A
riff in E
Chorus
E D A....and fade out.
Back in Black.tab

Back in Black
ACDC

Verse 4x
e:-------2--2--2-------------3-0-----------------------2--2--2---------------|
B:-------3--3--3------------------3--0-----------------3--3--3---------------|
G:-------2--2--2----2--2--2-------------b(2)-0---------2--2--2-----2--2--2---|
D:2------0--0--0----2--2--2-----------------------2----0--0--0-----2--2--2---|
A:2-----------------0--0--0-----------------------2----------------0--0--0---|
E:0-----------------------------------------------0--------------------------|

Bridge
e:-------------------------------------------------------------------2-------|
B:----------------------------------------------------------------3--3-------|
G:------------------------------2-----4--2--4----2-----4--2--4----0--2--2----|
D:------------------------------2--2--4--2--4----2--2--4--2--4----0--0--2----|
A:-2-----2-----2-----2----------0--2--2--0--2----0--2--2--0--2----0-----0----|
E:----4-----5-----6-----7----------0----------------0-------------3--------3b|

Well I'm b
e:------------2--------------------------------------------------------------|
B:---------3--3----------------------------------------------------3---------|
G:-----2---0--2--2--------2---2-----4--2--4----2-----2--4--2--4----0---------|
D:-----2---0--0--2--------2---2--2--4--2--4----2--2--2--4--2--4----0---------|
A:-----0---0-----0--------0---0--2--2--0--2----0--2--0--2--0--2----0--strum-5|
E:(4)------3--------3b(4)--------0----------------0----------------3---------|

ack in black repeat verse 2x then bridge Ryth


e:---------------2--2--2-----------------------------------------------------|
B:---------------3--3--3-----------------------------------------------------|
G:---------------2--2--2-----------------------------------------------------|
D:---------------0--0--0--------------------------------------------------2--|
A:--or-6---times----------------------------------------------------------2--|
E:------------------------------------------------------------------------0--|

em 1 solo 4 times then bridge again


e:---------------------------------------------------------------------------|
B:---------------------------------------------------------------------------|
G:-7--7--7---6--6--6--------------------------------7--7--7--6--6--6-----2---|
D:-7--7--7---6--6--6---2--2--2---2--2--2---2--2--2--7--7--7--6--6--6--2--2--2|
A:-5--5--5---4--4--4---2--2--2---2--2--2---2--2--2--5--5--5--4--4--4--2--0--2|
E:---------------------0--0--0---0--0--0---0--0--0--------------------0-----0|

riff a 4x riff b 2x repeat riff


e:---------------------------------------------------------------------------|
B:---------------------------------------------------------------------------|
G:--2---------------------------------------------------0--5--4--2--4-----2--|
D:--2------------------------------------------------------------------3-----|
A:--0------0--5--4--2--4-----2-----2-----2-----2-----------------------------|
E:------------------------3-----4-----5-----6-----7--------------------------|
a 2x then bridge again Then play rythem for the solo again
e:-------------------------------------------------------------------|
B:-------------------------------------------------------------------|
G:---2-----2-----2---------------------------------------------------|
D:4-----5-----6-----7------------------------------------------------|
A:-------------------------------------------------------------------|
E:-------------------------------------------------------------------|
Big Balls.tab

BIG BALLS
AC/DC

Intro: (Softly)
E E D# D C C D D# E E D# D C C D D# E E D# D C
-------------------------------------------------------------------
-------------------------------------------------------------------
-------------------------------------------------------------------
--9------9-8-7-5----5-7-8-9----------------------------------------
--7------7-6-5-3----3-5-6-7------Similarly-------------------------
-------------------------------------------------------------------

(Hard)
C D D B B B B B
-------------------------------------------------------------------
-------------------------------------------------------------------
---------------4-4-4-4-4.------------------------------------------
--5-/-7---7-\--4-4-4-4-4.------------------------------------------
--3-/-5---5-\--2-2-2-2-2.------------------------------------------
-------------------------------------------------------------------

1st Verse (all verses SPOKEN - as in all great poetry)


E (let ring) C (let ring)
Well I'm upper-upper class high society,
E (let ring) C (let ring)
Gods' gift to ballroom noteriety,
E (let ring) C (let ring)
And my ballrooms always filled - the event is never small,
D (let ring) B B B B B
The social pages say I've got the biggest balls of all.

Chorus
All chords stoccato (i.e jab then rest) until last line.
(Refer below for chord riff details)
E (chord riff) C#m (chord riff)
I've GOT big balls, I've GOT big balls,
They're SUCH big balls, they're DIRTY big balls,
And HE's got big balls, and SHE's got big balls,
C C C D D A A A B
BUT WE'VE GOT THE BIGGEST - BALLS OF THEM ALL.

2nd Verse
E C
And my ballrooms always bouncing, and my ballrooms always full,
E C
And everybody comes and comes again.
E C
If your name is one the guest list - no one can take you higher,
D B B B B B
Everybody says I've got great balls of fire.
Chorus
3rd Verse
E C/E
Some balls are held for charity, and some for fancy dress,
E C/E
But when they're held for pleasure - they're the balls that I like best.
E C/E
My balls are always bouncing - from the left and to the right,
D/F# B B B B B
It's my belief that my big balls should be held every night.

Chorus
Fade out to chants of "Ball-sucker,Ball-sucker"
(at least that's what the kids said when I was at school)

The chorus has a chord riff like this (stoccato)


The (D) is an optional passing note.
E E E E (D) C#m C#m C#m C#m (D) (repeat)
Played ala:
E E E E (D) C#m
------------------------4--------------------------------------
--5----5----5---5-------5--------------------------------------
--4----4----4---4-------6--------------------------------------
--2----2----2---2---0---6--------------------------------------
------------------------4--------------------------------------
------------------------------Similarily-----------------------

Verse
E XX245X
C X3555X
D XX0232
B X2444X
D/F# 2X0232 (optional bass note)
C/E 03555X (optional bass note)
Chorus
E XX245X
C#m X46654
C X3555X
D X5777X
A X0222X
B X2444X
Big Gun.tab

Big Gun
AC/DC

Riff A: 2x in the intro


-GUITAR 1=>-3---0----0--0-------|-----------3---0---0------------
------------------3--------3--0-|-----------------3-----3\-------
--------------------------------|--------------------------------
--2--2--<==GUITAR 2-------------|--2--2--------------------------
--2--2--------------------------|--2--2--------------------------
--0--0--------------------------|--0--0--------------------------

Riff B: (play once with each line of lyrics)


-----------------------------------------------------------------
-----------------------------------------------------------------
-----------------------------------------------------------------
--------0--------------------------------------------------------
------2-----0-4---0-2---0-4-----2--------------------------------
--0-0-----0-----0-----0-----0-3---3------------------------------
I'm playing on the radio
Pictures on the TV
And every man take a-what he can
Shoot 'em on the silver screen

Riff C: (same timing as above)


-----------------------------------------------------------------
-----------------------------------------------------------------
--------0--------------------------------------------------------
------2-----0-4---0-2---0-4-----2--------------------------------
----0-----0-----0-----0-----0-3---3------------------------------
-----------------------------------------------------------------
Stickin' the law, knockin' them down
Livin' out a fantasy

Riff B with:
There's a bad man cruisin' around
In a big black limousine

Riff D:
| | | | || | | | | |
B(vii) A(v) B(vii)
Don't let it be wrong, don't let it be right
A(v) G(iii) D#/F Em
Give into spite, and double your sights
======
CHORUS
======
Riff A with:
Big gun -- big gun, number one
Big gun

----------------------------------- G
----------------------------------- T
----0------------------------------ R
------2--0------------------2------
--------------2P0---2-0------------ #
-------------------------3--0------ 2
Big gun, can you hit on the loon (I SAID I couldn't hear the words!)
[Riff B twice]

VERSE 2
=======
With Riff B:
Terminator's using acres
Shooting up Hollywood
Snakes he ate with a funny fad
Gettin' up 'n' doin' no good
With Riff C:
If you ain't wise, uncover the lies
To fuss of you

With Riff B:
Classified lady killers
Playin' in the U.N. too
With Riff D:
The sooner you are, you're taking the town
Better look out when he's comin' 'round

[CHORUS]
solo:
---3P0-0--(GTR 1)------------------------------------------------
------3----------------------------------------------------------
-----------------------------------------------------------------
---------------------------2-----5----2P0H2---(GTR 2)------------
-----------------------------------------------------------------
-----------------------------------------------------------------
-----------------------------------------------------------------
-----------------------------------------------------------------
-----------------------------------------------------------------
---5--4P2P0--4P2P0-2H5P2P0-----------0-----------2-----2---------
-----------------------------2P0---2---2P0-----------------------
---------------------------------3---------3-2-0---3P0-----------

The soloing is in E minor

Repeat the CHORUS once more and then free-form it to the end.
Bonny.tab

Bonny
ACDC

Explanation:
h=hammeron p=pulloff ~=handvibrato
x=failed s=slide b/neck~= bend neck means...USE YOUR WHAMMY BAR!

~~~ ~~b/neck~~~ h s~~~~


e|-3------------------|---------------------------------------|---------------|
b|-3------------------|---------------------------------------|---------------|
g|-4------------------|---------------------------------------|---------------|
D|-5------------------|-5---5--5--7--9--9-9--7--5--7--5-------|--------5--5--5|
A|-5------------------|----------------------------------7--5-|-5--7----------|
E|-3------------------|---------------------------------------|---------------|
s ~~~~ ~~~~~ ~~ x

e|-------------------------|---------------------------------------|----------|
b|-------------------------|---------------------------------------|----------|
g|-----------7--9----7-----|-7--9--9--7--------7-------------------|----------|
D|--7--9--9----------------|-------------9--9-----10-9-7-5---------|------5--5|
A|-------------------------|--------------------------------10--7--|5--7------|
E|-------------------------|---------------------------------------|----------|
~~~~ h p

e|-------------------------3-----------|
b|-------------------------3-----------|
g|-----7--9--7-------------4-----------|
D|7s9-----------9--9-7-9---5-----------|
A|-------------------------5-----------|
E|-------------------------3-----------|
Can I Sit Next To You.tab

Can I Sit Next To You


ACDC

Intro Chords:
+-----------------------------------------------------------------------
+-----------------------------------------------------------------------
+-------6-8-------------------------------------------------------------
+-6-8-9-6-8-------------------------------------------------------------
+-6-8-9-4-6-------------------------------------------------------------
+-4-6-7-----------------------------------------------------------------
Verse:
+-----------------------------------------------------------------------
+-----------------------------------------------------------------------
+-----------------------------------------------------------------------
+-4H6-8-6-8-4H6-8-6-8---------------------------------------------------
+-4..-4-4-4-4..-4-4-4------------1-2-2-2-2-1-------------1-2-2-2-2-1----
+----------------------2-2-2-2-4-------------4-2-2-2-2-4-------------4--
+-----------------------------------------------------------------------
+-----------------------------------------------------------------------
+-----------------------------------------------------------------------
+-----------------------------------------------------------------------
+-4H6-8-6-8-4H6-8-6-8------------------------1-2-2-2-2------------------
+-4..-4-4-4-4..-4-4-4------------1-2-2-2-2-4-----------2-1-0-0-0-0-2-4--
+----------------------2-2-2-2-4----------------------------------------
+-----------------------------------------------------------------------
+-----------------------------------------------------------------------
+-----------------------------------------------------------------------
+-7-7-9-7-7-7-9-7-7-7-9-7-7..8..9-9-11-9-9-9-11-9-9-9-11-9-9..8..7------
+-5-5-5-5-5-5-5-5-5-5-5-5-5..6..7-7-7--7-7-7-7--7-7-7-7--7-7..6..5------
+-----------------------------------------------------------------------
Repeat the 7-7-9-7 part a few more times, then:
+-----------------------------------------------------------------------
+-----------------------------------------------------------------------
+-----------------------------------------------------------------------
+-4-2-------------6-----------------------------------------------------
+-----4-2-0-------6-----------------------------------------------------
+-----------2-0-2-4-----------------------------------------------------
And you're back where you started.
Near the end it does this for a while:
+-------------------------------------------------------------
+-------------------------------------------------------------
+-8-------6--5------------------------------------------------
+-8-------6--5------------------------------------------------
+-6-------4--3------------------------------------------------
+-------------------------------------------------------------

That's about it. It takes a while to get the picking and fingering right
in the walking part. I keep my middle finger on the 2nd fret & pick
alternately down & up.
--2H4-- Hammer on
--4P2-- Pull off
--2S4-- Slide
--2..-- Let Ring
--2..2- Let Ring, then hit again
--2~~-- Vibrato
--0-0-- Palm Mute
p p

--0-0-- Up & Down Picking


U D
--0-0-2-0-0-3-0-0-2-0-0-3-0-0-2H3-- Metallica
p..........................
D U D U D U D U D U D U D U D
The spacing of the notes kind of reflects the timing of the song, but not
very well.
Can't Stand Still.tab

Can't Stand Still

Riff A:
E --5-5--4-4--2-2--|
B --0-0--0-0--0-0--|
G -----------------|
D -----------------|
A -----------------|
E -----------------|
Riff B:
E --7-7-7-7--10-10-10-10--|
B --0-0-0-0--0--0--0--0---|
G ------------------------|
D ------------------------|
A ------------------------|
E ------------------------|

Riff C:
E --7-7--10-10--12-12--5-5--7-7--10-10--7-7---|
B --0-0--0--0---0--0---0-0--0-0--0--0---0-0---|
G --------------------------------------------|
D --------------------------------------------|
A --------------------------------------------|
E --------------------------------------------|
Intro
Riff A (4x)
Riff B (2x)
Riff A (2x)
Riff C
Repeat Intro
Dirty Deeds Done Dirt Cheap.crd

Dirty Deeds Done Dirt Cheap


ACDC

[E] [G5] [E] [A5] [E] [D5/A] [E]


[D5]If you're [E] havin' trouble with the high school head
He's givin' you the blues [D] [E]
You wanna graduate but not in 'is bed
Here's what you gotta do [D] [E]
Pick up the phone
I'm always home, call me anytime
[D] Just ring [E] three six [D]two, [E]four three six [D] o [E]
I lead a life [D]of crime [E]
Chorus:
[A5]Dirty deeds done [G5]dirt [A5]cheap
[E]Dirty deeds done [D] dirt [E] cheap
[A5]Dirty deeds done [G5]dirt [A5]cheap
[E]Dirty deeds they're done dirt cheap
Dirty deeds they're done dirt cheap[D] [E]
You got problems in your life of love
You got a broken heart [D] [E]
He's double dealin' with your best friend
That's when the tear drops start, fella [D] [E]
Pick up the phone, I'm here alone, or make a social call [D] [E]
Come right in [D] [E], forget about him [D] [E]
We'll have ourselves [D]a ball [E]

Chorus
Break
[B] [E], per intro
If you got a lady and you want her gone
But you ain't got the guts [D] [E]
She keeps naggin' at you night and day

Enough to drive you nuts [D] [E]


Pick up the phone, leave her alone
It's time you made a stand [D] [E]
For a fee[D] [E] I'm happy to be [D] [E]
Your back [D] door [E] man. Whoo!

Chorus
Concrete shoes[G5] [E], cyanide [A5] [E], T. N. T.
[E] Done [D] dirt [E] cheap
Neck-ties [G5] [E], contracts [A5] [E], high voltage
[E] Done [D] dirt [E] cheap
Dirty deeds [G] [E] [A] [E] )
[E] Done [D] dirt [E] cheap ) Repeat
They're ready to send [A]him on [E] the cruise
DIRTY DEEDS DONE DIRT CHEAP.tab

DIRTY DEEDS DONE DIRT CHEAP


AC/DC
(SOLO)

b - bend the note a half tone


B - bend the note a full tone
~~~ - vibrato Angus style
> - the notes over this symbol should be played with an accent

SOLO
e|--------------|--------|------------------------|-----------------|
B|--------------|--------|------------------------|-----10(B)~~~----|
D|--6(b)--6(b)--|--------|-----9(B)---9(B)--9--7--|--7--------------|
G|--------------|--9~~~--|--7---------------------|-----------------|
A|--------------|--------|------------------------|-----------------|
e|--------------|--------|------------------------|-----------------|

e|-------------|-----------------------------------|------------------------|
B|--10(B)--10--|-----------------------------------|------------------------|
D|-------------|-----------------------------------|------------------------|
G|-------------|--9--9---9--9--9--9---9--9---9--9--|--9---9---9---9---9--9--|
A|-------------|-----------------------------------|------------------------|
e|-------------|-----------------------------------|------------------------|
> > > > >

e|---------------------|--7-10-7-------------------------------------|
B|---------------------|---------10----10----------------------------|
D|---------------------|------------11----11-9-11-9---9--7-----9--7--|
G|--9---9---7---7---9--|------------------------------------9--------|
A|---------------------|---------------------------------------------|
e|---------------------|-----------This part is actually played--|

e|--------------------------|---------------------------|

http://www.guitartabs.cc/tablocate.php?filename=/a/ac_dc/dirty_deeds_done_dirt_cheap.tab
(2 of 3) [3/15/2001 11:35:51 PM]

dirty_deeds_done_dirt_cheap.tab
B|--------------------------|--here the fun begins------|
D|--------------------9(B)--|--The pattern is just a----|
G|--9--7-----9--9--9--------|--pull offs sequence-------|
A|--------9-----------------|---------------------------|
e|-----quite--fast-!!!------|---------------------------|
To save space I'm just indicating the finger patterns. They are all pull
offs. Keep it flowing throughout.
e|--(8--5--0)---(9--6--0)---(10--7--0)-|-(11--8--0)---(12--9--0)-------|
B|-------------------------------------|-------------------------------|
D|---Repeat each pattern 8 times-------|-From here to the end of the---|
G|-------------------------------------|-sequence repeat 4 times each--|
A|-------------------------------------|-pattern-----------------------|
e|-------------------------------------|-------------------------------|
e|--(13--10--0)---(14--11--0)---(15--12--0)---(16--13--0)---(17--14--0)--|
B|-----------------------------------------------------------------------|
D|-----------------------------------------------------------------------|
G|-----------------------------------------------------------------------|
A|-----------------------------------------------------------------------|
e|-----------------------------------------------------------------------|

e|--(18--15--0)--|--17(B)---|
B|---------------|----------|
D|---------------|----------|
G|---------------|----------|
A|---------------|----------|
e|---------------|----------|
Down Payment Blues.tab

Down Payment Blues


AC/DC

Intro:
E A let ring... E A let ring...
e ------------------------------------------------------
B ---------2------------------------2-------------------
G ---1-----2------------------1-----2-------------------
D ---2-----2------------------2-----2-------------------
A ---2-----0------------------2-----0-------------------
E ---0------------------------0-------------------------
E A E A E A E E let ring...
e ------------------------------------------------------
B ---------2-----------2-----------2--------------------
G ---1-----2-----1-----2-----1-----2--------------------
D ---2-----2-----2-----2-----2-----2-----------2--------
A ---2-----0-----2-----0-----2-----0-----0-----2--------
E ---0-----------0-----------0-----------0-----0--------

Play 4x, soft, slight rake with pick


E A E A E A E E
e ------------------------------------------------------
B ------------------------------------------------------
G ---------2-----------2-----------2--------------------
D ---------2-----------2-----------2------------2-------
A ---------0-----------0-----------0------------2-------
E ---0-----------0-----------0------------0-----0-------

Play twice, soft rake with pick


F# B F# B F# B F# F#
e -------------------------------------------------------
B -------------------------------------------------------
G ---------4-----------4-----------4---------------------
D ---------4-----------4-----------4-------------4-------
A ---------2-----------2-----------2-------------4-------
E ---2-----------2-----------2------------2------2-------

Play twice, soft rake with pick


A D A D A D A A
e --------------------------------------------------------
B --------------------------------------------------------
G ---------7-----------7------------7---------------------
D ---------7-----------7------------7-------------7-------
A ---------5-----------5------------5-------------7-------
E ---5-----------5------------5------------5------5-------

Play 8x, with feeling :^)


B E B E B E B B
e ------------------------------------------------------
B ------------------------------------------------------
G ---------9-----------9------------9-------------------
D ---9-----9-----9-----9------9-----9------------9------
A ---9-----7-----9-----7------9-----7------9-----9------
E ---7-----------7------------7------------7-----7------
The rest of the song continues with the same chord patterns
in the following order (listen to the record to note the
variations in striking the chords):
B E B E B E B B
A D A D A D A A
E A E A E A E E etc...
Extro: (there's a little riff before this but I haven't been
able to figure it out yet...):
slight bend on these notes
e ------------------------------------------------------
B ------------------------------------------------------
G ---2-----2-----------0--------------------------------

http://www.guitartabs.cc/tablocate.php?filename=/a/ac_dc/down_payment_blues.tab (2 of 3)
[3/15/2001 11:35:53 PM]

down_payment_blues.tab
D ---2-----2-----4-----5-----5-----4-----5-----4--------
A ---0-----0-----------0--------------------------------
E ------------------------------------------------------
Flick of the Switch.tab

Flick of the Switch


AC/DC

~~~ stands for vibrato Angus' style

INTRO
A C D
|-----------2------------------|-----------2------------|------------------|
|-----------3------------------|-----------3--(Sustain--|------------------|
|--2--5-----2------------------|--2--5-----2---here-)---|------------------|
|--2--5-----0------------------|--2--5-----0------------|------------------|
|--0--3--0--------------2-3-2--|--0--3--0---------------|-----------2-3-2--|
|--------------0-1-2-3---------|------------------------|--0-1-2-3---------|

VERSE
(Basically same as intro)
A C D
|-----------2-------------------| Well there's love gone down the line
|-----------3-------------------| Suicidal balls and chains
|--2--5-----2-------------------| She sends signals out of distress
|--2--5-----0-------------------| She trouble she evil
|--0--3--0---------------2-3-2--|
|---------------0-1-2-3---------|

|----------------------------------------|--------|
|--------3---------3---------3---------3-|--------|
|--------2---------2---------2---------2-|--------|She gets you reelin' on her
|--------0---------0---------0---------0-|--------| rockin' machine
|--0--3------0--3------0--3------0--3----|-0-3~~~-|
|----------------------------------------|--------|

|--------------------|--------------------|------------------|----3--2--|
|--------------------|--------------------|------------------|----3--3--|
|-------------5--7-7-|--------------------|-------------5--7-|-7--0--2--|
|--2-2-2-2-2--5--7-7-|--------------------|--2-2-2-2-2--5--7-|-7--0--0--|
|--0-0-0-0-0--3--5-5-|--5--7~~~--5--3~~~--|--0-0-0-0-0--3--5-|-5--2-----|
|--------------------|--------------------|------------------|----3-----|
(Lyrics for the riff above:)

With a flick of the switch


She'll blow you up sky high
With a flick of the switch
she can satisfy
With a flick of the switch
she's gonna burn you down
With a flick of the switch
she can (crash) satisfy

|--2-----3--2-----2-----3--2--|
|--3-----3--3-----3-----3--3--|
|--2-----0--2-----2-----0--2--|
|--0-----0--0--0--0-----0--0--|
|--------2--------------2-----|
|-----0--3-----------0--3-----|
Girls Got Rhythm.crd

Girls Got Rhythm


AC/DC

[Riff 1] [Riff 2]
e|-3-0-------------|e e|-3-3-------------|e
b|-2-1-------------|b b|-2-2-------------|b
g|-3-0-------------|g g|-3-3-------------|g
d|-0-2-------------|d d|-0-0-------------|d
a|---3-----0-0-3-0-|a a|---------0-0-3-0-|a
e|-----0-2---------|e e|-----0-2---------|e
[riff 1] [riff 1]
I been around the world, I seen a million girls,
[riff 1] [riff 1]
Ain^Òt one of them got, what my lady she^Òs got,
[riff 1] [riff 1]
She^Òs stealin^Ò the spotlight, she knocks me off my feet,
[riff 1] [riff 1]
She^Òs enough to start a landslide, just a walkin^Ò down the street,
[riff 2] [riff 2]
Wearin^Ò dresses so tight, and lookin^Ò dynamite,
[riff 2] [F#] [E]
Enough to blow me out, no doubt about it can^Òt live without it,
Chorus:
[riff 1] [riff 1]
Girls got rhythm, girls got rhythm,

[riff 1] [riff 1]
She got the backseat rhythm, girls got rhythm
[riff 1] [riff 1]
She^Òs like a lethal brand, too much for any man,

[riff 1] [riff 1]
She gives me first degree, she really satisfies me,
[riff 1] [riff 1]
Loves me ^Ñtill I^Òm legless, achin^Ò and sore,

[riff 1] [riff 1]
She^Òs enough to stop a freight train, or start the third world war,
[riff 2] [riff 2]
You know I^Òm losin^Ò sleep, ^Ñcause I^Òm in too deep,
[riff 2] [F#] [E]
And my body needs love, no doubt about it can^Òt live without it,

Repeat Chorus
For the bridge you just repeat [riff 1]
[riff 2] [riff 2]
You know she moves like sin, and when she lets me in,
[riff 2] [F#] [E]
It^Òs like liquid love, no doubt about it can^Òt live without it,
Repeat Chorus
[riff 1] [riff 1]
You know she really got the rhythm, she got the backseat rhythm,
[riff 1] [riff 1]
Rock and roll rhythm, the girls got rhythm.
Given The Dog A Bone.tab

Given The Dog A Bone


AC/DC

Verse Riff:
A5
e|-----------------|-----------------|
B|-----------------|-----------------|
G|-2-2-2-2-2-2-2-2-|-2-2-2-2-2-2-2-2-|
D|-x-2-2-x-2-2-x-2-|-2-x-2-2-x-2-2-2-|
A|-3-0-0-5-0-0-3-0-|-0-5-0-0-3-0-0-x-|
E|-----------------|---------------3-|
Bridge Riff:
D5/A A5
e|-----------------|-----------------|
B|-------3---------|-----------------|
G|-------2---------|-----------------|
D|-------0-------2-|-x-2-2-x-2-x-2---|
A|-3-2-0-0-------0-|-3-0-0-5-0-3-0---|
E|-----------------|-----------------|
Chorus Riff:
E5 A5 E5
e|-----------------|
B|-----------------|
G|-----------------|
D|-------2---------|
A|-x-2-2-0-----2---|
E|-3-0-0-----3-0---|
Gone Shootin.tab

Gone Shootin
AC/DC

INTRO:
e -----------------------------------------------------------------------
B -----------------------------------------------------------------------
G ---11--------------11--------------11--------------11------------------
D ---11--------------11--------------11--------------11------------------
A ---9---------7--s--9---------7--s--9---------7--s--9---------7---------
E ---9-----7h9-------9-----7h9-------9-----7h9-------9-----7h9-----------
MAIN RIFF:
e -------2---2--x--0---0--------------------2--2--x--0---0---------------
B -----------2--x--0---0---4-------------------2--x--0---0---4-----------
G ---2h3-------------------4---2h3------2h3------------------4---2h3-----
D ---------------------------------4---------------------------------4---
A -----------------------------------------------------------------------
E -----------------------------------------------------------------------
And then this:
e ------------------------------------------2--2--x--0---0---------------
B ---6------------4-----------2----------------2--x--0---0---4-----------
G ---6------------4-----------2---------2h3------------------4---2h3-----
D ---6------------4-----------2--------------------------------------4---
A ---4------------2-----------0------------------------------------------
E -----------------------------------------------------------------------

Extro: ( I think it's something like this :)


e --------2-------0-------0---------------0------------------------------
B --------2-------0-------0-------4-------0-------4----------------------
G ---2h3------------------1-------4-------1-------4----------------------
D ------------------------2-------4-------2-------4-------4--------------
A ----------------------------------------2-------2-------4--------------
E ----------------------------------------0---------------2--------------

And then play this: ( again, this may not be correct )


e -----------------------------------------------------------------------
B ---------------2------------------------------2-----------2------------
G ------2--3--4-----4--2--4------------2--3--4-----4--2--4--2------------
D ---4-----------------------4--4---4------------------------------------
A -----------------------------------------------------------------------
E -----------------------------------------------------------------------
Hard as a Rock.crd

Hard as a Rock
AC/DC

Main riff:
e---2-4-5-4-2-0-2-4-2---4-0---4-2---
B---0-0-0-0-0-0-0-0-0---0-0---0-0---
G-----------------------------------
D-----------------------------------
A-----------------------------------
E-----------------------------------
B5 E5 B5 E5
B5 Bmin7 B5(alternate)
A rolling rock, electric shock
It gives a licking that doesn't stop

She line 'em up, push you round


Smoking rings going round and round

New riff:
e---2-2-4-2-4-5-4-2-0-2-4-2---
B---0-0-0-0-0-0-0-0-0-0-0-0--- x3

B5 Bmin7 B5(alternate)
Her hot potatoes
Will elevate you
Her bad behaviour
B5 A5 E5 B5
Will leave you standing proud
Hard as a rock
Chorus:
(main riff)or B5 E5 B5 E5
Hard as a rock
Harder then a rock
Hard as a rock
B5 A5 E5 x2
Harder then a rock

B5 Bmin7 B5(alternate)
The lightning rod, strike it hot
Going hit you like the rushmore rock

No nicotine and no pipe dreams


So low and dirty it's darn right mean
New riff:
e---2-2-4-2-4-5-4-2-0-2-4-2---
B---0-0-0-0-0-0-0-0-0-0-0-0--- x3
B5 Bmin7 B5(alternate)
Hell elevator, I'll see you later
No I ain't gonna take it
B5 A5 E5
I'm bustin' out
Hard as a rock
Chorus:
(main riff)or B5 E5 B5 E5
Hard as a rock
Harder then a rock
Hard as a rock
B5 A5 E5 x2
Harder then a rock
Chord definitions:
B5: 799XXX
Bmin7:777777
E5: 779977
A5: 577XXX
Have a Drink on Me.tab

Have a Drink on Me
AC/DC

1/2
|-------------------|---------------------------------------|---------
|-------8~~~--8-----|-------8-------------------------------|---------
|--7/9--------9~~~--|--7/9-----9\7p5-----7------5-----------|--5------
|-------------------|-----------------7---------------7-----|--5h6----
|-------------------|------------------------------------0--|--0------
|-------------------|---------------------------------------|---------

1/2
----------------------|------------------------------------------|----
-------------7--------|-------------8----------------------------|----
-------------7--------|--------7/9-----9\7p5-----7---5-----------|----
-------------7--------|-----------------------7------------7-----|----
----0-----0--0-----0--|---------------------------------------0--|----
----------------------|------------------------------------------|----

1/2
-----------------------------|---------------------------------|------
--------------7--------------|-------8-------------------------|------
5h6-----------7--------------|--7/9-----9\7p5-----7---5--------|------
5-------------7--------------|-----------------7---------7-----|------
0----0-----0--0-----------0--|------------------------------0--|------
-----------------------------|---------------------------------|------

------------------------|-------------------------------|-------------
---------3--------------|-------------2-----------------|-------------
2--------2--------------|--5-------5--2-----------------|--5h6--------
2--------0--------------|--5-------5--2-----------------|--5----------
0-----0--0-----------0--|--3p0-----3--0--------0-----0--|--0----0-----
------------------------|-------------------------------|-------------

1/2
---------------------|---------------------------------|--------------
---------------------|-------8-------------------------|--------------
---------7-----------|--7/9-----9\7p5-----7---5--------|--5h6---------
---------7-----------|-----------------7---------7-----|--5-----------
---0-----0--------0--|------------------------------0--|--0----0------
---------------------|---------------------------------|--------------

---------------------|--------------------------------|---------------
---------7-----------|-----------------2--------------|---------------
---------7-----------|--5-----------5--2--------------|--5h6----------
---------7-----------|--5-----------5--2--------------|--5------------
---0-----0--------0--|--3-----0-----3--0-----------0--|--0----0-------
---------------------|--------------------------------|---------------
1/4
------|------------------------------------------|--------------------
---7--|----------8-------------------------------|--------------------
---7--|-----7/9-----9\7p5-----7---5--------------|--5h6---------------
---7--|--------------------7--7---------7--------|--5-----------------
0--0--|--------------------0--0---------0-----0--|--0----0-----0------
------|------------------------------------------|--------------------

Oh....... whiskey
---------------|---------------------------||---------||--------------
7--------------|-----------2---------------||---------||--------------
7--------------|--5--------2------2-----0--||---------||*-------------
7-----0--------|--5--------2---------------||---------||*--5-----4----
0-----0-----0--|--3--0--3--0---------------||---------||---0-----0----
---------------|---------------------------||---------||--------------

P.M.-------------------]P.M. P.M. P.M.


------------------------|---------------------------------------------
------------------------|---------------------------------------------
------------------------|---------------------------------------------
5-----------------------|-----------5--5--4--5-----------7------------
0---(0)--(0)--(0)--(0)--|---(0)-----0--0--0--0---(0)-----0---(0)------
------------------------|---------------------------------------------

4x join me for..P.M..
-||----------------------------|---------------------------|----------
-||----------------------------|---------------------------|----------
*||-------------------------2--|---------------------------|----------
*||---5--5--4--5------2--2--2--|--5--5--4--5-------7-------|--5--5----
-||---0--0--0--0---0--0--0--0--|--0--0--0--0--(0)--0--(0)--|--0--0----
-||----------------------------|---------------------------|----------

P.M. P.M.
---------------3--|---------------------------|-----------------------
---------3--3--3--|---------------------------|-----------------3-----
---------0--0--0--|---------------------------|-----------------2-----
4--5-----0--0--0--|--5--5--4--5--------7------|--5--5--4--5-----0-----
0--0--0-----------|--0--0--0--0---(0)--0---0--|--0--0--0--0--0--0-----
---------3--3--3--|---------------------------|-----------------------

Forget about the check.............


------|---------------------------|--2--------2-----------|--1--------
3--3--|---------------------------|--3--------3-----------|--1--------
2--2--|---------------------------|--2--------2-----2--2--|--2--------
0--0--|--5--5--4--5-----7---0--0--|--0-----0--0-----0--0--|--3--------
0--0--|--0--0--0--0--0--0---------|-----------------------|--3--------
------|---------------------------|-----------------------|--1--------

Have a........... P.M.


------3------------------||--------------------|----------------------
------3------------------||-------------7------|----------8-----------
------0---------3--------||--5h6--------7------|-----7/9-----9p7------
------0---------3--------||--5----------7---7--|----------------------
-------------------------||--0-------0--0------|----------------------
0-----3---------3-----0--||--------------------|----------------------
1/4
-----------------------|--------------------------|-------------------
-----------------------|-----------7--------------|-------------------
p5-----7---5-----------|--6--------7--------------|--5-----5--2-------
----7--7---------7--0--|--5-----0--7--------0--0--|--5-----5--2-------
----0--0---------0--0--|--0--0--0--0--------0--0--|--3--0--3--0-------
-----------------------|--------------------------|-------------------

1/4
------------|-------------------|-------------------------------------
------------|----------------7--|-------8------------7----------------
------------|--5h6-----------7--|--7/9-----9\7p5-----7---5------------
------------|--5-------------7--|-----------------7---------7--0------
---0-----0--|--0----0-----0--0--|-----------------0---------0--0------
------------|-------------------|-------------------------------------

C'mon
|-----------------------|---------------------------|-----------------
|--------3--------------|---------------------------|-----------------
|--2-----2--------------|--5--------2---------------|-----------------
|--2-----0--------0-----|--5--------2---------------|--5-----4--5-----
|--0--0--0-----------0--|--3--0--3--0------0-----0--|--0-----0--0-----
|-----------------------|---------------------------|-----------------

-----------|---------------------------|-------------------------|----
-----------|---------------------------|-------------------------|----
-----------|---------------------------|-------------------------|----
-----------|--5--5--4--5-------7-------|--5--5--4--5-------------|----
------(0)--|--0--0--0--0--(0)--0--(0)--|--0--0--0--0--------(0)--|----
-----------|---------------------------|-------------------------|----

2. Oh Guitar Solo
--------------------------||---|--------------||----------------------
--------------------------||---|--x--x--5~~~--||--3--0----------------
--------------------------||---|--------------||--------2--0--2-------
5--5--4--5--------7-------||---|--------------||----------------------
0--0--0--0---(0)--0--(0)--||---|--------------||----------------------
--------------------------||---|--------------||----------------------

Full hold bend Full


---------|-----------------------------|----0--0--0-------------------
---------|---3-------------------------|-------------3--0--3--0-------
-(2)-----|---------(2)p0------------2--|p0-----------------------2----
---------|----------------2~~~--x------|------------------------------
---------|-----------------------------|------------------------------
---------|-----------------------------|------------------------------

1/2 Full
------------------|---------------------------------------|-----------
------------------|-----3-----3-----3~~~-------5-----7p5--|---7-------
0---2-----2--0--2/|--4--------4-----------4/6--6----------|-----------
------------------|---------------------------------------|-----------
------------------|---------------------------------------|-----------
------------------|---------------------------------------|-----------
Full 3/4 3/4 3/4 3/4 Full
0------------------------------------------|------------0-------------
----7---------7---------7---------7--------|------7---------7---------
----------9---------9---------9---------9--|--------------------------
-------------------------------------------|--------------------------
-------------------------------------------|--------------------------
-------------------------------------------|--------------------------

Full Full Full


--------------0------0-------|----------------------------------------
-------7------7------7--(7)--|--5--8--7p5-----5-----5~~~--(5)p2-------
9----------------------------|-------------6-----6---------------0----
-----------------------------|----------------------------------------
-----------------------------|----------------------------------------
-----------------------------|----------------------------------------

1/2 Full Full


0---------|--0--0--7-------------------------------|------------------
---0---8--|--0-----8------------0------------5--5--|------------5-----
----------|-----------9~~~--(9)\-------7-----------|---7--------------
----------|----------------------------------------|------------------
----------|----------------------------------------|------------------
----------|----------------------------------------|------------------

Full Full Full Full hold bend


--------------------------------------------------------|--7----------
5-----5--5---------5--5---------5--5---------5---7------|-----7-------
---6---------7------------7------------7----------------|-------------
--------------------------------------------------------|-------------
--------------------------------------------------------|-------------
--------------------------------------------------------|-------------

Full Full Full Full(top note only)


-------7---------7------7-------7--|-----5----------------------------
-7---------7---------7----------7--|--------5--8--7--5-----5--5-------
-----------------------------------|--------------------6-------------
-----------------------------------|----------------------------------
-----------------------------------|----------------------------------
-----------------------------------|----------------------------------

Full Full(top note) 1/2(top note)


------------|---------------------------------------------------------
(5)\0-------|--15------15-----------15------15------------------------
----0---14--|----------14-----------14------14--------(14)-----12-----
------------|---------------------------------------------------------
------------|---------------------------------------------------------
------------|---------------------------------------------------------

1/2
|-----------------------------15--|---(15)----------------------------
|--12-----------------------------|------------17p15------15~~~-------
|------12------12--12--(12)\4/----|-------------------16--------------
|----------14---------------------|-----------------------------------
|---------------------------------|-----------------------------------
|---------------------------------|-----------------------------------

Full Full Full


-------------------|--------------------------------------------------
(15)\--------------|-------15-----------------------------------------
---------------12--|---14-------14------14~~~-------------------------
--------10/14------|--------------------------------------------------
-------------------|--------------------------------------------------
-------------------|--------------------------------------------------

Have a drink................etc.
------||-----------------------||-------------------------------------
------||-----------------------||-------------------------------------
-(14)\||-----------------------||*------------------------------------
------||-----------------------||*------------------------------------
------||-----------------------||-------------------------------------
------||-----------------------||-------------------------------------

Outro(Gonna roll around....etc.)


----------2--------------|-----------2-----------------|--------------
----------3--------3-----|-----------3-----------------|--------------
-2-----2--2--------2--0--|--------0--2--------2--2--2--|--2-----0-----
-2-----2--0--------0--0--|--5-----0--0--------2--2--2--|--2-----0-----
-0-----0--0--------0-----|--5-----------------0--------|--0-----------
-------------------------|--3--------------------------|--------------

4x
2--------------|--------------2------------||-------------------------
3--------------|--3-----------3------------||-------------------------
2--------0-----|--0-----------2-----2-----*||-------------------------
0--------0--5--|--0-----------0-----0--2--*||-------------------------
0-----------5--|--------------0--------0---||-------------------------
------------3--|--3-----3------------------||-------------------------
Hells Bells.tab

Hells Bells
AC_DC

Pattern 1 played approx. 5 Times


Am Asus4 Am7 Asus4 Am Asus4 Am7 A7sus4 C5 G/B Am
e|--0--------------|-----------------|--0--------------|----------------------|
b|-------3-------1-|------3----------|-------3-------1-|------3---------------|
g|----------2------|--0-------2------|-----------2-----|--0-------------------|
D|-----------------|-----------------|-----------------|---------5---5--------|
A|0---0--------0---|----0--------0-0-|-----0-------0---|----0----3---2---0----|
E|-----------------|-----------------|-----------------|----------------------|

Pattern 2
Asus4 Am7 Asus4 Am Asus4 G D C5 G/B Am
e|0----------------|-------------------|-0-------------3-|-3--2---------------|
b|-----3-------1---|-------3-----------|-----3---------3-|-3--3---------------|
g|--------2--------|--0--------2-------|---2-----2-----0-|-0--2---------------|
D|-----------------|-------------------|---------------0-|-0--0---5---5-------|
A|--0--------0-----|----0---------0--0-|------------0--2-|-2--0---3---2---0---|
E|-----------------|-------------------|---------------3-|-3------------------|

D5/A~~~~~ Cadd9 G/B A5 D5/A Cadd9 G/B


e|-------------------|-----------------|-----------------------|--------------|
b|-------------------|---------3----3--|-----------------------|-----3---3----|
g|-9--7--9---7--5--7-|---------0----0--|-----9--7--9---7--5--7-|-----0---0----|
D|-7--7--7---5--5--7-|-----------------|-----7--7--7---5--5--7-|--------------|
A|-----------------0-|------0--3----2--|--0--------------------|--0--3---2----|
E|-------------------|-----------------|-----------------------|--------------|

At this Point the Verse is mostly A5 D5/A Cadd9 G/B A5 D5/A Cadd9 G/B - Stuff!
I won t take no Prisoners... (Pattern 3)
D5 C5 G5 D5 C5 G
e|------------------------------------3-----------------------------------3---|
b|---3--3--3---3--3--3---3--3--3------3------3--3--3---3--3--3-3-3-3-3----3---|
g|---2--0--2---2--0--2---2--2--2--5---0------2--0--2---2--0--2-2-2-2-2-5--0---|
D|-0------------------------------5---0---0----------------------------5--0---|
A|--------------------------------3------------------------------------3------|
E|------------------------------------3-----------------------------------3---|

PreChorus: E5 D5/A A E5 G5 & Chorus Patt.1!


Pre-Solo b slowb
e|----------------------------------------5-----------------------------------|
b|--8--7--8--7---7--5---------------------5-7-8--7-----8----------------------|
g|--7--7-------9-7--5-----------------------7-8--7-----8----------------------|
D|---------------------7--5--7------------------------------------------------|
A|---------------------------------------------------------12-----------------|
E|------------------------------------------------------------x---------------|
x
x
Solo 1
~~~~~ ~~~~~ b b |---HB---------|
e|----------------------------------------------------------------------------|
b|--------------------------------------------------8---------8-8-8-8-8-8--8-8|
g|-------------------------------------------7-9-------7--9---9-9-9-9-9-9--9-9|
D|--5-7-7-----4-5-5------0--4-5-7-7--5-7--------------------------------------|
A|----------------------------------------------------------------------------|
E|----------------------------------------------------------------------------|
r ~~~~~~~ ~~~~~~~ ~~~~~~~ ~~~~~
e|---------------------------------------------------------------------------|
b|------------5-------8------7---7-------8--8------10--10-----13-13-12-13-13-|
g|--7--5------5----9--9------7---7-------9--9------11--11-----14-14-13-14-14-|
D|-------7-7------/----------------------------------------------------------|
A|---------------------------------------------------------------------------|
E|---------------------------------------------------------------------------|
ub ub
e|----------------------------------------12---12-----10-----10---------------|
b|12-13-13-12-13-12-13-13-13-13-13-13-13--13---13--13-15--13-15---------------|
g|13-14-14-13-14-13-14-14-14-14-14-14-14--------------------------------------|
D|----------------------------------------------------------------------------|
A|----------------------------------------------------------------------------|
E|----------------------------------------------------------------------------|
ub r b
e|---10----------------------10---10---------10----10-------------------------|
b|13-15---12-13---12---10--/-10---10---13-10----10-------13--------15-17-19---|
g|-----------------------\-/-----------------------------14----\14------------|
D|-------------------------------------------------------------\--------------|
A|----------------------------------------------------------------------------|
E|----------------------------------------------------------------------------|
b b b b r b b
e|17--------17-----------17-----17----------------------------------------|
b|---17-19-----17-19--17-19--17-19---17---15--17--15----15------------20--|
g|---------------------------------------------------16-----19-21--19-21--|
D|------------------------------------------------------------------------|
A|------------------------------------------------------------------------|
E|------------------------------------------------------------------------|
b b b b b
e|--------------17------------------------------------------17--20--17--------|
b|-----------------20-17-----------------------20-22-20-22-------------20-22--|
g|19-21-19-21------------20-19-17----19-17------------------------------------|
D|--------------------------------19-------19---------------------------------|
A|----------------------------------------------------------------------------|
E|----------------------------------------------------------------------------|
b b ~~~~~~~~
e|-17-17-------20-22--20-21-----17--------------------------------------------|
b|-------20-17---------------------20-17--------------------------------------|
g|---------------------------------------19-21-19-17-----17-------------------|
D|---------------------------------------------------19------------19---------|
A|-------------------------------------------------------------------\--------|
E|--------------------------------------------------------------------\-------|
Solo 2
b b b
e|---------15----------------------------------15-----------------------------|
b|-15-17------17--15----13------15-----15--17------17--15------13-----15----15|
g|----------------------------------------------------------------------------|
D|----------------------------------------------------------------------------|
A|----------------------------------------------------------------------------|
E|----------------------------------------------------------------------------|
b
e|---15--------------------------------15-------------------------------------|
b|17----17-15---13-------15-----15-17-----17-15------13-----------------------|
g|----------------------------------------------------------------------------|
D|----------------------------------------------------------------------------|
A|----------------------------------------------------------------------------|
E|-------------------------------------------------------17-----17-----17-----|
\ \ \
~~~~~~ ~~~~~~~~ ~~~~~~~ ub ub
e|----------------------------------------------5-------5---\----8---------8--|
b|-------------------------------------------8-10---8--10---\\-----10-8-10--10|
g|--2--0--2------2---------5-7---------5---------------------\----------------|
D|--2-----------------------------------\-------------------------------------|
A|--0-------------------------------------------------------------------------|
E|----------------------------------------------------------------------------|
ub ub b b b ~~~~~ b b
e|--------5------5---------------17-------------17----------------------------|
b|\----8-10--8--10---\----20-22-----20-17-20-22----17--20-22-----20-22---20-22|
g|-\--------------------------------------------------------------------------|
D|----------------------------------------------------------------------------|
A|----------------------------------------------------------------------------|
E|----------------------------------------------------------------------------|
b b b b b b b b r
e|----------17----------------------------------------------------------------|
b|-20-22------20-17-------------------20----20------20------20------20------20|
g|------------------19-21-19-17-19-21----19-21---19-21---19-21---19-21---19-21|
D|----------------------------------------------------------------------------|
A|----------------------------------------------------------------------------|
E|----------------------------------------------------------------------------|
e|----------------------------------------------|
b|20-----------19--17---------------------------|
g|19-----17----19--17----------------2-------2--|
D|----------19--------------x--------2-------2--|
A|---------------------------\-------0-------0--|
E|----------------------------\----------3------|

Lyrics:
Hell's Bells (Young, Young, Johnson)
I'm a rolling thunder, a pouring rain
I'm comin' on like a hurricane
My lightning's flashing across the sky
You're only young but you're gonna die
I won't take no prisoners, won't spare no lives
Nobody's putting up a fight
I got my bell, I'm gonna take you to hell
I'm gonna get you, Satan get you
CHORUS:
Hell's Bells
Yeah, Hell's Bells
You got me ringing Hell's Bells
My temperature's high, Hell's Bells
I'll give you black sensations up and down your spine
If you're into evil you're a friend of mine
See my white light flashing as I split the night
'Cause if good's on the left, then I'm stickin' to the right
I won't take no prisoners, won't spare no lives
Nobody's puttin' up a fight
I got my bell, I'm gonna take you to hell
I'm gonna get you, Satan get you
CHORUS
High Voltage.crd

High Voltage
AC/DC

The intro goes: D D E E D G A A (repeat 4 times)


[E] [D]
You ask me ^Ñbout the clothes I wear,
[E] [D]
You ask me why I grow my hair,
[E] [D]
You ask me why I^Òm in a band,
[D]
I dig doin^Ò one night stands,
[E]
You wanna see me do my thing,
[D] [A]
All you got to do is let me into high, I said high,

Chorus:
[A] [C] [D] [A]
High voltage rock and roll,
[A] [C] [D] [A]
High voltage rock and roll,
[C] [D] [C] [D]
High voltage, high voltage,
[C] [G] [D] [A]
High voltage rock and roll

[E] [D]
You ask me why I like to dance,
[E] [D]
You ask me why I like to sing,

[E] [D]
You ask me why I like to play,
[D]
I got to get my kicks some way,
[E]
You ask me what I^Òm all about,

[D] [A]
Come, let me hear you shout high, I said high,

Repeat Chorus
The bridge goes E D G A A (repeat 4 times)
[E]
I said high, I said high,
Repeat Chorus
[A]
Stars, bars all around, spotlights, footlights. I^Òll take ^Ñem
Repeat Chorus
Highway To Hell.tab

Highway To Hell
AC/DC

INTRO:
A D/f# G D/f# G D/F# G D/F# A
E------------------------------------------------------------------------------
B-----------2--2--2-----------3--3--3------3--3--3-----3--3--3------------2--2-
G-----------2--2--2-----------2--2--0------2--2--0-----2--2--0------2-----2--2-
D-----------2--2--2-----------0--0--0------0--0--0-----0--0--0------0-----2--2-
A-----------0--0--0-------------------------------------------------------0--0-
E-----------------------------2--2--3------2--2--3-----2--2--3------2----------

A A A
D D/F# G D D/F# G
Livin' easy, livin' free,
D D/F# G D/F# A A
Season ticket on a one way ride
A A A D D/F# G D D/F# G
Askin' nothin, leave me be.
D D/F# G D/F# A A
Takin' ev'rythin' in my stride.

Don't need reason, don't need rhyme,


Ain't nothin' i'd rather do.
goin' down, party time.
my friends are gonna be there too.

Chorus
A A A D/A G --º
I'm on a highway to hell Repeat
D/F# A A A D/A G
on the highway to hell --º

Additional verses

no stop signs, speed limit,


nobody's gonna slow me down.
like a wheel, gonna spin it.
nobody's gonna mess me around.
Hey, satan, pay'n' my dues,
playin' in a rockin' band.
hey, momma, look at me.
I'm on my way to the promised land.
Highway to Hell 2.tab

Highway to Hell
AC/DC

main riff:
E ---------------|----------------|----------------|----------------
B ---2---2---2---|---3---3---3----|---3---3---3----|---3---3---3----
G ---2---2---2---|---2---2---0----|---2---2---0----|---2---2---0----
D ---2---2---2---|---0---0---0----|---0---0---0----|---0---0---0----
A ---0---0---0---|----------------|----------------|----------------
E ---------------|---2---2---3----|---2---2---3----|---2---2---3----

E -----------|-------
B -------2---|---2---
G ---2---2---|---2---
D ---0---2---|---2---
A -------0---|---0---
E ---2-------|-------

The chorus then goes like this:


on the high - way to hell
E ----2---|-------------------2----|--
B ----3---|---2---2---2---2---3----|--
G ----2---|---2---2---2---2---2----|--
D ----0---|---2---2---2---2---0----|--
A ----0---|---0---0---0---0---0----|--
E ----2---|------------------------|--
And the guitar solo bit : (after 'Don't stop me !')

E --2---3---3---2-----|--3---3---3---2----2----|------5-------------------
B --3---3---3---3-----|--3---3---3---3----3----|----5---------5-5------5--
G --3---3---3---3-----|--3---3---3---3----2--7b(9)------7b(9)-----7b(9)---
D --0---0---0---0-----|--0---0---0---0----0----|--------------------------
A --0---0---0---0-----|--0---0---0---0----0----|--------------------------
E --------------------|------------------------|--------------------------

E -----------------------------------|----------------|------------------------
B -5--------5--5-------5--5--7--(8)r7b(8)-------------|------------------------
G ----7b(9)------7b(9)-------7--(8)r7b(8)--5-----7---5b(6)---------------------
D -----------------------------------|--------7-------|-------4--(5)r4--2------
A -----------------------------------|----------------|-----X-------------3--0-
E -----------------------------------|----------------|------------------------

E ----------5-----------|----------5--X---------|----------------5--
B -------------5--------|----------5--X-----5---|-------------------
G -2--4b(6)------(6)r4--|-2--0-----------4b(5)--|---2--0--X--/2-----
D ----------------------|-----------------------|-------------------
A ----------------------|-------0---------------|-------------------
E ----------------------|-----------------------|-------------------
E ---------------------------|-
B -5-------------------------|-
G ---4--(5)r4--X/14--X/18\---|-
D ---------------------------|-
A ---------------------------|-
E ---------------------------|-
The trill bit at the end is just frets 12 and 15 on the top string.
Notation used:
5b(7) play at fret 5 and bend to fret 7
(7)r5 play string already bent to fret 7 and release to fret 5
4/6 and 6\4 slide up/down from..to
X play muted string
Highway To Hell 3.tab

Highway To Hell 3
AC/DC

%PART V-1 [Intro, Verse]-- [*


A5 D/F# G5 D/F# G5 D/F# G5 A5
-----.-||-------------.-|-------------.-|------.--------|-.------------.--||
-------||---------------|---------------|---------------|-----------------||
-2-2-2-||o--------------|---------------|-------------2-|-2--------2-2-2-o||
-2-2-2-||o------------5-|-------------5-|------5------2-|-2--------2-2-2-o||
-0-0-0-||---------5-5-5-|---------5-5-5-|--5-5-5---5--0-|-0--------0-0-0--||
-------||---------2-2-3-|---------2-2-3-|--2-2-3---2----|-----------------||
& 4 & 1 & 2 & 3 & 4 & 1 & 2 & 3 & 4 & 1 & 2 & 3 & 4 & 1 & 2 &3 & 4 &

[*:: last time before Chorus: play PART V-2 instead...]

%PART V-2 [end of Verse]


D/F# G5 D/F# E5 -->to PART C-1(Chorus)
|------------------|------------------|-----------------||
|------------------|------------------|-----------------||
|------------------|------------------|-----------------||
|------5-----------|-9-9-9-9-9-9-9-9--|-9-9-9-9-9-9--9--||
|--5-5-5----5------|-7-7-7-7-7-7-7-7--|-7-7-7-7-7-7--7--||
|--2-2-3----2---0--|-0-0-0-0-0-0-0-0--|-0-0-0-0-0-0--0--||
1 & 2 & 3 & 4 & 1 & 2 & 3 & 4 & 1 & 2 & 3 & 4 &

**INTRO: [PART V-1 2x]

**VERSE 1: [PART V-1 3x; 4th x, go to V-2{see E5 below}]


Livin' easy, livin' free--
Season ticket on a one-way ride--
Askin' nothin'--leave me be--
Takin' everything in my stride--
Don't need reason, don't need rhyme--
Ain't nothing that I'd rather do--
Goin' down--party time--
My friends are gonna {E5} be there, too-- [->PART C-1/Chorus 1]

%PART C-1 [Chorus]-- [3 times] [** [*


A5 D G D A5 D [to V-1]
||-------------------|----2-2----3---2----||----------2=|===2===|==2-------||
||-----------------3=|==3-3-3-3--3---3----||----------3=|===3===|==3-------||
||o--2---2---2--2--2=|==2-2-2-2--0---2---o||-2-2-2--2-2=|===2===|==2-------||
||o--2---2---2--2--0=|==0-0-0-0--0---0---o||-2-2-2--2-0=|===0===|==0-------||
||---0---0---0--0----|--------------------||-0-0-0--0---|-------|----------||
||-------------------|-----------3--------||------------|-------|----------||
1 2 3 4 & 1 & 2 & 3 4 1 2 3 4 &---1234----123

[*:: end of 2nd Chorus, go to PART C-2 from here...]


[**:: middle of 3th Chorus, go to Part C-3 from here...]
**CHORUS 1: [PART C-1]
I'm on a Highway to Hell-- On the Highway to Hell--
Highway to Hell-- On the Highway to Hell--

**VERSE 2: [a la Verse 1]
No stop signs-- speed limit--
Nobody's gonna slow me down--
Like a wheel, gonna spin it--
Nobody's gonna mess me around--
Hey, Satan--payin' my dues--
Playin' in a rockin' band--
Hey, mama, look at me--
I'm on my way to the {E5} Promised Land-- [oh, poor Bon Scott!...]

**CHORUS 2: [PART C-1-->C-2]


I'm on a Highway to Hell-- Highway to Hell--
I'm on the Highway to Hell-- Highway to Hell--
[to PART C-2] --Don't stop now--

%PART C-2 ["tag" to Chorus2]--


D G D D G D G D G
|--2-----3-----2===|======2-----------|--2-----3-----2===|=2--3----2---3---||
|--3-----3-----3===|======3-----------|--3-----3-----3===|=3--3----3---3---||
|--2-----0-----2===|======2-----------|--2-----0-----2===|=2--0----2---0---||
|--0-----0-----0===|======0-----------|--0-----0-----0===|=0--0----0---0---||
|------------------|------------------|------------------|-----------------||
|--------3---------|------------------|--------3---------|----3--------3---||
1 & 2 & 3 & 4---------1234 1 & 2 & 3 & 4&----1 &2& 3 4
"--Don't stop now--"

**LEAD TACIT [played over PART C-1]


(I woulda trancribed Angus's lead, but I thought, hell, YOU can do just
as well, jammin' on the A pentatonic minor scale! . . . Of course, a
Gibson SG would help!)

**CHORUS 3: [PART C-1-->C-3]


I'm on a Highway to Hell-- On a Highway to Hell--
I'm on a Highway to Hell-- On a Highway to[stutter-pause: PART C-3]

%PART C-3 [stutter-pause in middle of 3rd Chorus]--


A5 D [lead gu. descending smear]
|---------------.--|------------------|
|---------------3--|-\-\-\------------|
|--2--2--2---2--2--|--\-\-\-----------|
|--2--2--2---2--0--|---\-\-\----------|
|--0--0--0---0--0--|----\-\-\---------|
|------------------|------------------|
1 2 3 4 &
"High__way to--"[stop]

**CHORUS 3 (continued) [PART C-1...]


Highway to Hell--{I'm on a Highway to Hell}Highway to Hell--
{Highway to Hell}Highway to Hell--{Highway to}Highway to Hell
[after Held-D chord:]
And I'm goin' down-- all the way--
[then--A5 thirty-second-note extended strum (cliche 70's coda)]
I'm on the Highway to Hell.
[then--single staccato A5]
It's A Long Way.pro

It's A Long Way


AC/DC

[A]
Riding down the highway
Going to a show
Stop in all the by-ways
Playing rock 'n' roll
Getting robbed
Getting stoned
Getting beat up
Broken boned
Getting had
Getting took
I tell you folks, it's harder than it looks

Chorus:
It's a [A]long way to the [G]top if you wan[D]na rock 'n' [A]roll x 2
If you [A]think it's easy doing one night stands [D]
Try playing in a rock 'n' roll band
It's a [G]long way to the [D]top if you wanna to rock 'n' [A]roll

Break:
[A]
[G] [D] [A] x 4

[A] Quiet
Hotel, motel
Make you want to cry
Lady do the hard sell
Know the reason why
Getting old Heavy
Getting grey
Getting ripped off
Under paid
Getting sold
Second hand

Chorus:
It's a [A]long way to the [G]top if you wan[D]na rock 'n' [A]roll x 2
If you [A]wanna be a star of stage and screen [D]
Look out, it's rough and mean
It's a [G]long way to the [D]top if you wanna to rock 'n' [A]roll x 4
It's a long way Repeat & ad-lib
It's a long way 2.tab

It's a Long Way To the Top (If You Wanna Rock 'n' Roll)
AC/DC

Intro: (Guitar 1)
+--------------------------------------------------------------------
+--------------------------------------------------------------------
+--------------------------------------------------------------------
+---4..4----4-----4..4----4-----4..4----4-----4..4----4--------------
+-0-2..2--X-2---0-2..2--X-2---0-2..2--X-2---0-2..2--X-2--------------
+--------------------------------------------------------------------

Fill (Guitar 2)
+-------------------
+-------------------
+----------------4.......
+---4..4-------2-4.......
+-0-2..2--X-2H4--2.......
+-------------------
After a while, Guitar 2 changes to this rhythm part:

+--------------
+--------------
+--------------
+-4-4..4--2-4--
+-0-2..2--2-2--
+--------------
p

Fill:
+------7--X-7.. Guitar 1
+------7----7..
+--------------
+-4-4..4--2-4-- Guitar 2
+-0-2..2--2-2--
+--------------

Chorus:

+------------------- +-------------------------------------------------
+------------------- +-------------------------------------------------
+-4......2...4..----OR+-----9-------------------------------------------
+-4......2...2..---- +-9-7-9-------------------------------------------
+-2......0...------- +-9-7-7-------------------------------------------
+------------------- +-7-5(0)------------------------------------------

Bridge:
+-----------------------------------------------------------------------
+-----------------------------------------------------------------------
+-------9-----------9---------------------------------------------------
+-9-----9-------7---9---9-----------------------------------------------
+-9-----7-------7---7---9-----------------------------------------------
+-7-------------5-------7-----------------------------------------------
Then comes the solo. The bagpipe part goes:
+----7~~--
+---------
+-7H8-----
+---------
+---------
+---------

That's about it. It's pretty easy. The solo is in the 7th position.

The System:
--2H4-- Hammer on
--4P2-- Pull off
--2S4-- Slide
--2..-- Let Ring
--2..2- Let Ring, then hit again
--2~~-- Vibrato
--0-0-- Palm Mute
p p

--0-0-- Up & Down Picking


U D

--0-0-2-0-0-3-0-0-2-0-0-3-0-0-2H3-- Metallica
p..........................
D U D U D U D U D U D U D U D
Jailbreak.tab

Jailbreak
AC-DC

MAIN RIFF:
E5 E5 D5 A5 E5 E5 D5 A5
||-----------------------------|-----------------------------|
||-------------------3---------|-------------------3---------|
||-------------------2-----2---|-------------------2-----2---|
||--2-----2----------0-----2---|--2-----2----------0-----2---|
||--2-----2--X--X----------0---|--2-----2--X--X----------0---|
||--0-----0--X--X--------------|--0-----0--X--X--------------|

E5 E5 D5 A5 E5 E5 D5 A5
|-----------------------------|-----------------------------|
|-------------------3---------|-------------------3---------|
|-------------------2-----2---|-------------------2-----2---|
|--2-----2----------0-----2---|--2-----2----------0-----2---|
|--2-----2--X--X----------0---|--2-----2--X--X----------0---|
|--0-----0--X--X--------------|--0-----0--X--X--------------|

VERSE 1: Main Riff with lyrics


There was a friend of mine on murder
And the judge's gavel fell
Jury found him guilty

play Fill 1 instead of Main Riff for this measure (Verse 1 only):
Gave him sixteen years in hell

FILL 1:
detune this note by unwinding tuning peg
|----------------------|------------------------|
|----------------------|------------------------|
|----------------------|------------------------|
|----------------------|------------------------|
|----------------------|------------------------|
|--0-------------------|--(0)-------------------|
bass and drums in
continue main riff with lyrics
He said, I ain't spendin' my life here
I ain't livin' alone
Ain't breakin no rocks on the chain gang
I'm breakin' out and headin' home

BRIDGE: main riff with lyrics


I'm gonna make a Jailbreak
And I'm lookin' towards the sky
I'm gonna make a Jailbreak
Ah how I wish that I could fly
PRE-CHORUS:
all in the name of liberty
A5 D5 D5 D5 D5 A5 D5 D5 D5 D5
|------------------------------------|-----------------------------------|
|------------------------3--3--3--3--|-------------------3--3--3--3------|
|--2---------------------2--2--2--2--|--2----------------2--2--2--2------|
|--2---------------------0--0--0--0--|--2----------------0--0--0--0------|
|--0---------------------------------|--0--------------------------------|
|------------------------------------|-----------------------------------|
all in the name of liberty i got to be free
B5 E5 E5 E5 E5 B5 D5 D5 D5 D5
|------------------------------------|-----------------------------------|
|------------------------------------|-------------------3--3--3--3------|
|--4---------------------------------|--4----------------2--2--2--2------|
|--4---------------------2--2--2--2--|--4----------------0--0--0--0------|
|--2---------------------2--2--2--2--|--2--------------------------------|
|------------------------0--0--0--0--|-----------------------------------|

CHORUS:
jail-------------------------break
|----------------------------|----------------------------|
|----------------------------|----------------------------|
|----------------------------|----------------------------|
|----------------------------|----------------------------|
|----------------2--5----4---|----------------2--5----4---|
|--0-----0--3/4--------------|--0-----0--3/4--------------|

let me outta here


|----------------------------|----------------------------|
|----------------------------|----------------------------|
|----------------------------|----------------------------|
|----------------------------|----------------------------|
|----------------2--5----4---|----------------2--5----4---|
|--0-----0--3/4--------------|--0-----0--3/4--------------|

jail-------------------------break
|----------------------------|----------------------------|
|----------------------------|----------------------------|
|----------------------------|----------------------------|
|----------------------------|----------------------------|
|----------------2--5----4---|----------------2--5----4---|
|--0-----0--3/4--------------|--0-----0--3/4--------------|

sixteen years
|----------------------------|----------------------------|
|----------------------------|----------------------------|
|----------------------------|----------------------------|
|----------------------------|----------------------------|
|----------------2--5----4---|----------------2--5----4---|
|--0-----0--3/4--------------|--0-----0--3/4--------------|

Chorus Riff again with lyrics:

Jailbreak
Had more than I can take
Jailbreak
Fill 2 with lyrics:
Yeah
FILL 2:

E5
|----------------------|------------------------|
|----------------------|------------------------|
|----------------------|------------------------|
|--2-------------------|--(2)-------------------|
|--2-------------------|--(2)-------------------|
|--0-------------------|--(0)-------------------|

VERSE 2: Main Riff with lyrics


He said he'd seen his lady bein' fooled with
By another man
She was down and he was up
Had a gun in his hand
Uh...bullets started flyin' everywhere
N'people started to scream
Big man lyin' on the ground
With a hole in his body where his life had been

but it was all in the name of liberty


A5 D5 D5 D5 D5 A5 D5 D5 D5 D5
|------------------------------------|-----------------------------------|
|------------------------3--3--3--3--|-------------------3--3--3--3------|
|--2---------------------2--2--2--2--|--2----------------2--2--2--2------|
|--2---------------------0--0--0--0--|--2----------------0--0--0--0------|
|--0---------------------------------|--0--------------------------------|
|------------------------------------|-----------------------------------|
all in the name of liberty i got to be free
B5 E5 E5 E5 E5 B5 D5 D5 D5 D5
|------------------------------------|-----------------------------------|
|------------------------------------|-------------------3--3--3--3------|
|--4---------------------------------|--4----------------2--2--2--2------|
|--4---------------------2--2--2--2--|--4----------------0--0--0--0------|
|--2---------------------2--2--2--2--|--2--------------------------------|
|------------------------0--0--0--0--|-----------------------------------|

CHORUS:

jail-------------------------break
|----------------------------|----------------------------|
|----------------------------|----------------------------|
|----------------------------|----------------------------|
|----------------------------|----------------------------|
|----------------2--5----4---|----------------2--5----4---|
|--0-----0--3/4--------------|--0-----0--3/4--------------|

|----------------------------|----------------------------|
|----------------------------|----------------------------|
|----------------------------|----------------------------|
|----------------------------|----------------------------|
|----------------2--5----4---|----------------2--5----4---|
|--0-----0--3/4--------------|--0-----0--3/4--------------|
jail-------------------------break
|----------------------------|----------------------------|
|----------------------------|----------------------------|
|----------------------------|----------------------------|
|----------------------------|----------------------------|
|----------------2--5----4---|----------------2--5----4---|
|--0-----0--3/4--------------|--0-----0--3/4--------------|

i got to break out outta here


D5 G5
|----------------------------|----------------------------|
|----------------------------|-------------------3--------|
|----------------------------|-------------------2----0---|
|----------------------------|-------------------0----0---|
|----------------2--5----4---|----------------2-------X---|
|--0-----0--3/4--------------|--0-----0--3/4----------3---|

SOLO -- over Pre-Chorus Riff.

INTERLUDE: bass plays E pedal, with lead guitar fills and lyrics

Heartbeats...they were racin'


Freedom...he was chasin'
Spotlights........Sirens
Rifles...........Firin'
But he made it out...
bass out

M'with a bullet in his back

OUTRO: repeat Chorus Riff with lyrics and guitar solo.

Jailbreak
Jailbreak
Jailbreak
Jailbreak
Jailbreak
Jailbreak....
Let There Be Rock.tab

Let There Be Rock


AC/DC

~ ~ P P ~
e |--------------|--------------|------------------------|
H |--------------|--------------|------------------------|
G |--------------|--------------|------5--7--8-7-5--7-5--|
D |---7--7--7\---|---7--7--7\---|---7--------------------|
A |--------------|--------------|------------------------|
E |--------------|--------------|------------------------|
P P P P
e |------------------------------------------------------|
H |------------------------------------------------------|
G |-----5--7--8-7-5--7-----5--7--8-7-5--7-----5--5-------|
D |--7------------------7------------------7-------------|
A |------------------------------------------------------|
E |------------------------------------------------------|

e |-----------------| |-----------| |--------|


H |-----------------| |-----------| |--------|
G |--------5--5--5--| |-----5--5--| x5 |-----5--|
D |--7--7-----------| |--7--------| |--7-----|
A |-----------------| |-----------| |--------|
E |-----------------| |-----------| |--------|

e |----------| |--------| |-----------| |--------|


H |----------| |--------| |-----------| |--------|
G |-----5--5-| x9 |-----7--| |-----7--7--| x5 |-----7--|
D |--7-------| |--7-----| |--9--------| |--9-----|
A |----------| |--------| |-----------| |--------|
E |----------| |--------| |-----------| |--------|

e |-----------| |--------|
H |-----------| |--------|
G |-----7--7--| x3 |-----7--|
D |--9--------| |--9-----|
A |-----------| |--------|
E |-----------| |--------|

And here we go now, folks!


________
| 3 | <----- (pull-offs)
e |----------17--------------------------------------------|
H |--20(22)------20-17-------------------------19--17------|
G |--------------------17--17------19--17------------------|
D |----------------------------19----------19----------19--|
A |--------------------------------------------------------|
E |--------------------------------------------------------|

e |------------------| Warning!
H |----------10--10--| The first
G |--12(14)----------| x4 bend is
D |------------------| slower than
A |------------------| the other ones.
E |------------------|
e |----------------------------------|
H |----------10----------10----------|
G |--12(14)------12(14)------12(14)--|
D |----------------------------------|
A |----------------------------------|
E |----------------------------------|

P - pull-off
20(22) - bend from 20 to 22 fret
~ - vibrato
\___ - slide
| 3 | - triolet
Let's get it up.tab

Let's get it up
AC_DC

(E) A D/A (E) A D/A A


e|-----------------------|--------------------------|
b|--------------2--3--3--|--------------2--3--3--2--| Pattern 1
g|--------------2--2--2--|--------------2--2--2--2--|
D|-----------2--2--4--4--|-----------2--2--4--4--2--|
A|---------2----0--0--0--|---------2----0--0--0--0--|
E|---0-2/4---------------|---0-2/4------------------|

A5 B5 E A5 B5 B5
e|--------0---|--------------| Pattern 2 (Verse)
b|--------0---|--------------|
g|-2--4---1---|----2--4---4--| X 2
D|-2--4---2---|----2--4---4--|
A|-0--2---2---|----0--2---2--|
E|--------0---|--------------|
(I'm gonna get it up.)...

B E B E B A
e|-------0--0-----------0-------------------0--| Pattern 3
b|-4--4--0--0------4----0----4------------0-2--|
g|-4--4--1--1------4----1----4--------------2--|
D|-4--4--2--2------4----2----4--2------2----2--|
A|-2--2--2--2------2----2----2--0------0----0--|
E|-------0--0-----------0----------------------|

With Pattern 1
b ~~~~~ b ~~~~~
e|----------------------------------------------------------------------------|
b|----------------------------------------------------------------------------|
g|-7-9--------7--7--7--7\6--4----7-9---------7--7--7--7-----------------------|
D|-----------------------------7---------------------------7------------------|
A|----------------------------------------------------------------------------|
E|----------------------------------------------------------------------------|
Gtr.1

b b ~ ~~ b b b
e|---------------|--7--------------|-----------------|---------7----------------
b|-10-12--10-12--|----10-7---7-----|------10-------10\-10-12-10--10-7---7-------
g|---------------|---------9--7----|--9-11--9-11-9-11\----------------10-10-9-7-
D|---------------|--------------9--|-----------------|-------------------------9
A|---------------|-----------------|-----------------|--------------------------
E|---------------|-----------------|-----------------|--------------------------
Pattern 4 (GTR. 2 over Solo) |
| A B E A B A B E D/A A |
e|---------------|-----------------|-----------------|----2--2-2-2------------|
b|---------------|-----------4-----|-----------------|----3--3-3-3----2-------|
g|----2--4-4-1---|-2---4--4--4-----|--2--4-4-1-----1-|----2--2-2-2----2-------|
D|----2--4-4-2---|-2---4--4--4-----|--2--4-4-2-----2-|-2--0--0-0-0----2-------|
A|----0--2-2-2---|-0---2--2--2-----|--0--2-2-2-----2-|-2--0--0-0-0----0-------|
E|-----------0---|-----------------|---------0-----0-|-0----------------------|
\.........................................................................../

Gtr.1 (cont.)
~~~~~ b hb b ~~~ b r b
e|----------------------------------------------------------------------------|
b|------------------------10--10---10--\---10--12--12---12--14-16--14-12-15-17|
g|-9-7---------7----9-11-(11)--9-9-11--\---11--13--13---13--------------------|
D|-----9-9--------------------------------------------------------------------|
A|----------------------------------------------------------------------------|
E|----------------------------------------------------------------------------|

b ~~~~~~ b b r ~~~~~~ b
e|---------------------------------------------------------------------17-19--|
b|15-17-------15----16------------17-19----17--15---17-15---------------------|
g|----------------------16-16--------------------16-------16-------\----------|
D|----------------------------------------------------------------------------|
A|----------------------------------------------------------------------------|
E|----------------------------------------------------------------------------|

b ~~ b b b b b ~~~
e|-17---14--------------------22-24--22----19---------------------------------|
b|---------17-18--17---15---------------------19--22-24--22-24--22-24--22-24--|
g|------------------------16--------------------------------------------------|
D|----------------------------------------------------------------------------|
A|----------------------------------------------------------------------------|
E|----------------------------------------------------------------------------|

b r b b b b b
e|---------------------------------------------------------------19-----22-24-|
b|22---22-24---22-19-----------------------------22-----------------19--------|
g|-------------------21-23-21--19--20------21-23----21-23--21-23--------------|
D|----------------------------------------------------------------------------|
A|----------------------------------------------------------------------------|
E|----------------------------------------------------------------------------|

b ~~~~
e|22-19-------------------|
b|------19--22-24-----\---|
g|------------------------|
D|------------------------|
A|------------------------|
E|------------------------|

Outro:
A (E) A D/A
e|----------------------------------------------------------------------------|
b|-2--2--2--2--2---2--2--2--2--2--2--2--2--2--2--2-------------2--2--2--------|
g|-2--2--2--2--2---2--2--2--2--2--2--2--2--2--2--2-------------2--3--3--------|
D|-2--2--2--2--2---2--2--2--2--2--2--2--2--2--2--2----------2--2--4--4--------|
A|-0--0--0--0--0---0--0--0--0--0--0--0--0--0--0--0--------2----0--0--0--------|
E|--------------------------------------------------0-2-4---------------------|
> > > > > >
Lyrics:
Let's get it up
Loose lips sink ships
So come aboard for a pleasure trip
It's high tide, so let's ride
The moon is rising and so am I
I'm gonna get it up
Never gonna let it up
Cruisin' on the seven seas
A pirate of my loving needs
I'll never go down, never go down

CHORUS:
So let's get it up
Let's get it up, get it right up
Let's get it up, right to the top
Let's get it up, right now
Loose wires cause fires
Getting tangled in my desires
So screw 'em off and plug 'em in
Then switch it on and start all over again
I'm gonna get it up
Never gonna let it up
Ticking like a time bomb
Blowing up the fuse box
I'll never go down, never go down
CHORUS
Live Wire.crd

Live Wire
AC/DC

INTRO:
||: A E B :|| E B

VERSE:
||: A E BB :||

CHORUS:
E G
Mistress For Christmas.tab

Mistress For Christmas


AC/DC

D A D D A G5 D D A
|-2-------------2--|-2---------------|-3-------2-------|-2------------------|
|-3---2---------3--|-3---2-----------|-3-------3-------|-3-------2----------|
|-2---2---------2--|-2---2-----------|-0-------2-------|-2-------2----------|
|-0---2---------0--|-0---2-----------|-0-------0-------|-0-------2----------|
|-0---0---------0--|-0---0-----------|---------0-------|-0-------0----------|
|------------------|-----------------|-3---------------|--------------------|
Jingle bells, Jingle bells jingle all the day

D A D D A G5 D D A
|------------------|----------------5|-----------------|--------------------|
|------------------|--------------5--|-8-5-------------|--------------------|
|------------------|--------5-7^9----|-----7-5-7---5---7/8\7-5--------------|
|------------------|------7----------|---------------7-|------------5h7-----|
|------------------|-----------------|-----------------|-----------7--------|
|------------------|-----------------|-----------------|--------------------|
I just can't wait till X-mas time when I'll be rollin' in the hay

D A D D A G5 D D A
Easy come Easy go Have a good time with lots of dough
Slipping up high Slippin' down low Love'em and leave 'em on with the show

D A D D A G5 D D A
|------------------|-----------------|-----------------|---------8^10v8-5---|
|------------------|-----------------|-----------------|--------------------|
|------------------|-----------------|-----------------|--------------------|
|------------------|------5---5------|-5-^^^^7---------|-5\\\---------------|
|------------------|-----------------|-----------------|--------------------|
|------------------|-----------------|-----------------|--------------------|
Ah ah ah , yeah all right

D A D D A G5 D D A
|------------------|-----------------|-----------------|--------------------|
|-8^10----8-5------|-----------------|-----------------|--------------------|
|-------------9\7~~|-7^9v7-5~~~~-----|-5---------------|--------------------|
|------------------|-----------------|---7--5--5-------|-7------------------|
|------------------|-----------------|-----------------|--------------------|
|------------------|-----------------|-----------------|--------------------|
Listen, I like
D A D D A G5 D D A
female form in mimimum dress Money to spend with a capital 'S'
Get a date with a woman in red Wanna be in heaven with three in a bed
D A G5 D D A G5 D
|------------------|-----------------|-----------------|--------------------|
|------------------|-----------------|-----------------|--------------------|
|-2~~~~~~~~~~~~~~--|--------7^9-7-5--|-7^9~~~~~~~~-----|--------------------|
|------------------|-----------------|-----------------|--------------------|
|------------------|-----------------|-----------------|--------------------|
|------------------|-----------------|-----------------|--------------------|
He got it I want it They got it I can't have it

D A G5 D D A G5 D
|------------------|-----------------|-------------------|--15-------15----15|
|------------------|-----------------|-15^17-15^17--15^17|-----15^17----15^17|
|-14~~~~~~~~~~~~~--|-----------------|-------------------|-------------------|
|------------------|-----------------|-------------------|-------------------|
|------------------|-----------------|-------------------|-------------------|
|------------------|-----------------|-------------------|-------------------|
But I want it, but it don't matter She got it I can't get it

G5 D G5 D
|------------------------------------|--------------------------------------|
|------------------------------------|--------------------------------------|
|-7-8v7-7-8v7--5-7-8v7-7-8v7-5-7-8v7-|--7-8v7---------5---------------------|
|------------------------------------|---------------------7----------------|
|------------------------------------|--------------------------------------|
|------------------------------------|--------------------------------------|
I wanna
D A D D A G D D A
|------------------|------------5----|-----------------|--------------------|
|------------------|----------5------|-8^10---8-5------|--------------------|
|------------------|------7^9--------|-----------8-7-5-|--------------------|
|------------------|-----------------|-----------------|-5-----------7------|
|------------------|-----------------|-----------------|--------------------|
|------------------|-----------------|-----------------|--------------------|
mistress for Christmas I wanna
D A D D A G D D A
|------------------|---------------|-------------------------|--------------|
|------------------|--------13--10-|12^13vv12^13v12-10-12^13-|v12-10-10-10--|
|------------------|------14--14---|-------------------------|--------------|
|------------------|---------------|-------------------------|--------------|
|------------------|---------------|-------------------------|--------------|
|------------------|---------------|-------------------------|--------------|
mistress for Christmas Ah, yeah
E5 B5 A5 E5 B5 A5 E5
|------------------|-----------------|-----------------|--------------------|
|--(second guitar play 9 and hold vibrato throughout 7 bars)----------------|
|--------4---------|-2---------------|-----4-----------|-2------------------|
|-2(9~~~)4(~~~~~~~)|-2(~~~~)2(~~~~~~)|(~~~)4(~~~~~~~~~)|-2(~~~~~)2(~~~~~~~~)|
|-2------2---------|-0------2--------|-----2-----------|-0-------2----------|
|-0----------------|--------0--------|-----------------|---------0----------|
Ha,ha yeah I wanna

E5 B5 A5 E5 B5 A5 E5
|------------------|-----------------|-------------|------------------------|
|------------------|-----------------|-------------|------------------------|
|------------------|-----------------|-------------|-9^11v9-7-9^11v9-7-9^11-|
|-~~~~~~~~~~~~~~~~-|-~~~~~~~~~~~~~~~-|-~~~~~~~~~~~~|------------------------|
|------------------|-----------------|-------------|------------------------|
|------------------|-----------------|-------------|------------------------|
mistress for Christmas Come on !
[guitar solo]
B5 A5 E5 B5
|-----------------------|-------------------------|-----------7--------------|
|-----------------------|-------------------------|--------------------------|
|-9^11--~~~~~~----------|---9^11--v9-7-9^11v9-----|7---7-9-10---10-9-7-----7-|
|----------------7\\\\\-|-0-----------------------|--9-----------------9-9---|
|-----------------------|-------------------------|--------------------------|
|-----------------------|-------------------------|--------------------------|
A5 E5 B5 A5 E5
|-----------------------|-------10-----10^11-------------|-------------------|
|-----------------------|----12-----12--------12-10------|--------------17^19|
|----------------2/////-|-11------------------------11-10|-9-7-9-7^9---------|
|-9--7------------------|--------------------------------|-----------9-------|
|-----------------------|--------------------------------|-------------------|
|-----------------------|--------------------------------|-------------------|
B5 A5 E5
|-----------------------|----17-----17-----17-----|
|---17-15-----------17^-|-19-----17^19--17^19-----|
|---------16-16~~~~-----|-------------------------|
|-----------------------|-------------------------|
|-----------------------|-------------------------|
|-----------------------|-------------------------|
G5 D A G5 D A
|------------------|-----------------|-5----------------|-------------------|
|------------------|-----------------|---8-5------------|-------------------|
|------------------|---------7^9-----|-------8-7-5-7-7-5|~~~~~--------------|
|------------------|-----------------|------------------|-------------------|
|------------------|-----------------|------------------|-------------------|
|------------------|-----------------|------------------|-------------------|
Easy come, Easy go
G5 D A G5 D A
|------------------|---------15^17---|-15^17-15^17--15^17v15--15^17-15^17---|
|------------------|-----------------|-----------------|--------------------|
|------------------|-----------------|-----------------|--------------------|
|------------------|-----------------|-----------------|--------------------|
|------------------|-----------------|-----------------|--------------------|
|------------------|-----------------|-----------------|--------------------|
Slippin' high Slipping low yeah Allright,

D A G5 D D A G5 D
He got it I want it They got it I can't have it
I want it don't have She got it and I can't get it
(mistress)He got it I want it(X-mas)They got it and I can't have it
(mistress)I want it it don't have it She got it knock 'em down

D A D A G5 G D
(mistress) (for Christmas)

D A D A G5 DD G5 D
(mistress) (for X-mas) You got to send them down You got to send them down
(mistress) (for X-mas) I want the woman in the rear with a bottle of my beer
(mistress) (for X-mas)

G5 D
|---------------------------------------------------------------------------|
|-8^10-8-7-5h7p5------------------------------------------------------------|
|----------------8-7-5---7-5-7-7^9------------------------------------------|
|----------------------7----------------------------------------------------|
|---------------------------------------------------------------------------|
|---------------------------------------------------------------------------|
I can hear you coming down that snowstack,yeah
D A
|------------------------------------------------------|--------------------|
|-8^10(10)-8-7-5h7p5-----------------------------------|--------------------|
|--------------------8p7p5---7-5-----------------------|--------2-----------|
|--------------------------7-----7--5------------------|--------2-----------|
|-------------------------------------7-6-5-3-5-3h4----|--------0-----------|
|------------------------------------------------------|--------------------|
I wanna ride on your reindeer honey and ring your bells yeah

^ : bend
h : hammer on
v : release
p : pull off
/ : slide up
~ : vibrato
\ : slide down
() : hold bend and pick again
Money Talks.tab

Money Talks
AC DC

(opening riff)
E :----------------|---------------|----------------|-----------------|
B :----------------|---------------|----------------|-----------------|
G :-16-14-16-14-17-|16-14-12-14-12-|-16-14-16-14-17-|16-14-12-12-14-12|
D :-12-12-12-12-12-|12-12-12-12-12-|-12-12-12-12-12-|12-12-12-12-12-12|
A :----------------|---------------|----------------|-----------------|
E :----------------|---------------|----------------|-----------------|

E :----------------|---------------|----------------|-----------------|
B :----------------|---------------|----------------|-----------------|
G :-16-14-16-14-17-|16-14-12-14-12-|-16-14-16-14-17-|-----------------|
D :-12-12-12-12-12-|12-12-12-12-12-|-12-12-12-12-12-|-----------------|
A :----------------|---------------|----------------|-----------------|
E :----------------|---------------|----------------|-----------------|
(verse riff) 12x 4x 4x
E :----------------|----------------|----------------|----------------|
B :----------------|----------------|----------------|Then-Repeat-----|
G :----------------|-7-7------------|-5-5------------|From-Beginning--|
D :-5-5------------|-7-7------------|-5-5------------|----------------|
A :-5-5------------|-5-5-5-5-9-5----|-3-3-3-3-7-3----|----------------|
E :-3-3-3-3-7-3----|----------------|----------------|----------------|
Pre Solo 2x 3x
E :----------------|----------------|----------------|----------------|
B :----------------|Then-Play-------|Then-opening----|----------------|
G :-7--7--7--7--7--|verse-riff------|riff-6x---------|----------------|
D :-7--7--7--7--7--|----------------|----------------|-5-5------------|
A :-5--5--5--5--5--|----------------|----------------|-5-5------------|
E :----------------|----------------|----------------|-3-3-3-3-7-3----|
hold
E :----------------|----------------|----------------|----------------|
B :----------------|----------------|----------------|----------------|
G :----------------|----------------|----------------|----------------|
D :-5--------------|-5--------------|----------------|----------------|
A :-5--------------|-5--------------|----------------|----------------|
E :-3--------------|-3--------------|----------------|----------------|
Night Prowler.tab

Night Prowler
AC/DC

First: Tune down a half step!

Intro
A5 D5 Csus2 D5 A5 D5 Csus2 D5
e|--------------------------------|----------------------------|--------------|
b|----------3---------3--------3--|----------3-----3------3----|--------------|
g|--2-------2---------0--------2--|----2-----2-----0------2----|--------------|
D|--2-------0------------------0--|----2-----0------------0----|--------------|
A|--0-----------------3-----------|----0-----------3-----------|--------0--3--|
E|--------------------------------|----------------------------|--0--3--------|

..Pattern1.........................endpattern.
/ A5 D5 Csus2 D5 \
e|--------------------------------|--------------|
b|----------3-------------3----3--|--------------|
g|--2-------2---------0-0------2--|--------------|
D|--2-------0------------------0--|--------------|
A|--0---------------3-------------|--------0--3--|
E|--------------------------------|--0--3--------|

..Pattern2.........................endpattern.
/ A5 D5 Csus2 Dsus2 \
e|-----------------------------0-----------------|
b|----------3-------3-3-3-3-3--3-----------------|
g|--2-------2-------0-0-0-0-0--2-----------------|
D|--2-------0------------------0-----------------|
A|--0---------------3-3-3-3-3--------------------|
E|-----------------------------------------------|

(Angus w/pattern 1)
b ~~~~~~~~~~~~~~~~~~~~~~~~~~~ r b ~~~~~~~~~~~ r
e|----------------------------------------------------------------------------|
b|-8-10----------------------------10-10--8-5---8-------10-----------10--8----|
g|--------------------------------------------------------------------------7-|
D|----------------------------------------------------------------------------|
A|----------------------------------------------------------------------------|
E|----------------------------------------------------------------------------|
b b t r t b r
e|----------------------------------------------------------------|
b|----------------------------------------------------------------|
g|-7-----8----9--12-14----------9---7-----5-----12-14----8--7--5--|
D|----------------------------------------------------------------|
A|----------------------------------------------------------------|
E|----------------------------------------------------------------|
(Angus w/pattern 2)

t b r t b r b b r
e|---------------------------------------------------8-10---------------------|
b|----------------------------------------------5------------8-10---8--5------|
g|12-14----8---7------5---12-14------8-----7----5-----------------------------|
D|----------------------------------------------------------------------------|
A|----------------------------------------------------------------------------|
E|----------------------------------------------------------------------------|
Pattern 3 (Verse)
A5 D G D
e|----------------------------------|
b|-------------------0--------------| X 2
g|-------------------0-----------2--|
D|-2-------4---------0-----------4--|
A|-0-------5---------------------5--|
E|----------------------------------|
( rat runs down the alley...) Pattern 4 (played 4 times)

A5 D G D
e|----------------------------------------------------------------------------|
b|----------------------------------------------------------------------------|
g|-------------------------0--------------------------------------------------|
D|-2------2-----4----------0----------4---------------------------------------|
A|-0------0-----5---------------------5-------------0--3----------------------|
E|--------------------------------------------0--3----------------------------|

Play Chorus w/Pattern 1 (3 1/2 X)


(...you shut out the light...)
e|--------------------------------------| Pattern 5
b|-3--3--3--3--3--3--3--3--3--3--3--3---|
g|-0--0--0--0--0--0--2--2--2--2--2--2---|
D|-------------------0--0--0--0--0--0---|
A|-3--3--3--3--3--3---------------------|
E|--------------------------------------|

Solo w/fig.1 (Chorus-like)


b~~~~~~~~~~~~ b b b r ~~~~~~~ ~~~~~~~ b b r b ~~
e|----------------------------------------------------------------------------|
b|------------------------------------------------------8-9-----8-10-----9--10|
g|7--9-----------9-7-8-9-8-9-------7--5---------------------------------------|
D|-------------------------------------------7--------x-----------------------|
A|----------------------------------------------------------------------------|
E|----------------------------------------------------------------------------|

~~~~~~ b b b b b b r b ~~~~~~
e|----------------------------------------------------------------------------|
b|----\-/7----------------------------------------------------------------10--|
g|-----------5--6-7--5--6-7--5--6-7--5--6-7--5--6-7--9---7---9-----\---------9|
D|--------------------------------------------------------------------2-/-----|
A|----------------------------------------------------------------------------|
E|----------------------------------------------------------------------------|
b b ~~~~~~~~ | b (| end w/Pattern 5)
e|0---------------------------------------------------------------------------|
b|---7-8--8-10----10--10--------10\------13-15------15-----15-----------------|
g|----------------------------------------------------------------------------|
D|----------------------------------------------------------------------------|
A|----------------------------------------------------------------------------|
E|----------------------------------------------------------------------------|

Pattern 6 (for Verse 2) 4 x


A5 A6 A7(no 3rd) A6
e|----------------------------------------------------------------------------|
b|----------------------------------------------------------------------------|
g|----------------------------------------------------------------------------|
D|-2---2--2---2---4-----4--4-----4---5-----5--5-----5--4----------------------|
A|-0---0--0---0---0-----0--0-----0---0-----0--0-----0--0----------0----3------|
E|----------------------------------------------------------0--3--------------|
Solo: w/patt.1
b ~~~~~~~~~~~ r b r b r b r b r b r b ~~~~~~~~~~ b ~~~
e|-----------------------------------------------------------5----------------|
b|--------------------------------------------------------------5-------8--10-|
g|--7--9-----------9--8--9-8--9--8-9-8-9-8-9--8--9----------------------------|
D|----------------------------------------------------------------------------|
A|----------------------------------------------------------------------------|
E|----------------------------------------------------------------------------|

~~~~ b ~~~~~~~~ b ~~~~~ r b r b r b r b


e|------8-10--------8-5--3-5-0-3----------------------------------------------|
b|--\----------------------------3-5------------------------------------------|
g|-----------------------------------5-------7--9----------9-7-9-7--9-7-9-7-9-|
D|----------------------------------------------------------------------------|
A|----------------------------------------------------------------------------|
E|----------------------------------------------------------------------------|

~~~~ ~~ ~~~ ~~~~ ~~~~


e|-----------------------------------------------------------------|
b|----------------------------------------------------------8-10---|
g|-9-9-9-9-----9-9-9-9--9-9-9-9--9-9-9---9-9-9-9----x--x-----------|
D|---------------------------------------------------\--\----------|
A|-------------------------------------------------------\---------|
E|-----------------------------------------------------------------|

~~~~~ hb ~~~~~ ~~~


e|-5-3-0--8-5-0-5-3-0---------------------------------------------------------|
b|--------------------5-3-0---------------------------------------------------|
g|--------------------------5-2-0---------------------------------------------|
D|--------------------------------5-2-0-2--5-------5--5-7--7----7----7--7---7-|
A|----------------------------------------------------------------------------|
E|-----------------------------------------------3----------------------------|

e|-------0----0----0----------------|
b|-------3----3----3----------------|
g|x\-----0----0----2----------------|
D|--\--------------0----------------|
A|---\---3----3----------------0--3-|
E|----------------------0---3-------|
b b
e|----------------------------------------------------------------------------|
b|1--3----2-0-3--0-2--0-3-1-3-1-3-1-3-1---3-1-3-1-3-1-------------------------|
g|-----------------------------------------------------5-7--------9-----x-----|
D|------------------------------------------------------------------------\---|
A|-------------------------------------------------------------------------\--|
E|----------------------------------------------------------------------------|

b ~~~~~~~ b ~~~~~~ ~~~~~


e|---------------5-------------------------5-------------5-------5------\-----|
b|-------------5---5-8-10------x\--8-10------8-5--8-10------8--5----------/-8-|
g|7-9-------------------------------------------------------------------------|
D|----------------------------------------------------------------------------|
A|----------------------------------------------------------------------------|
E|----------------------------------------------------------------------------|

~~~~~~~~~~~~ b
e|-8-5-----5------------------------------------------------------------------|
b|-----8------5---8--5----------------------------------------------x---8-10--|
g|----------------------5--8--7--5--7-----------------------------------------|
D|-------------------------------------7--5--7--5-----------\19---------------|
A|----------------------------------------------------------------------------|
E|----------------------------------------------------------------------------|
b ~~~~~~ b b b~~~~~
e|---------------------------------------------------7-8----7-8---7-8---------|
b|8-10--10------10--10--10--10--10--10--10--10-----------------------------x--|
g|--------------------------------------------------------------------------\-|
D|---------------------------------------------------------------------------\|
A|----------------------------------------------------------------------------|
E|-----------------------------------------------0----------------------------|
Lyrics:
Night Prowler
Somewhere a clock strikes midnight
And there's a full moon in the sky
You hear a dog bark in the distance
You hear someone's baby cry
A rat runs down the alley
And a chill runs down your spine
Someone walks across your grave
And you wish the sun would shine
No one's gonna warn you
And no one's gonna yell 'Attack'
And you don't feel the steel
Till it's hanging out your back
CHORUS:
I'm your Night Prowler, asleep in the day
I'm your Night Prowler, get out of my way
Look out for the Night Prowler, watch you tonight
I'm the Night Prowler, when you turn out the light ...
Too scared to turn your light out
'Cos there's something on your mind
Was that a noise outside your window?
What's that shadow on the blind?
As you lie there naked
Like a body in a tomb
Suspended animation
As I slip into your room
CHORUS
Solo
CHORUS
I'm your Night Prowler, break down your door
I'm your Night Prowler, crawling 'cross your floor
I'm your Night Prowler, make a mess of you, yes I will
Night Prowler, and I am telling this to you
There ain't nothing you can do
Ride On.crd

Ride On.crd
AC/DC

Chords:
C X32010
_C X3555X
F X33210
_F 133211
Bb X1333X
G 3X0033
_G 355433
(E) 0XXXXX
Intro: C F (4 times)

C F C F
It's another lonely evening
_F Bb _F Bb
In another lonely town
_G _C
But I aint to young to worry
Bb _F
And I aint to old to cry
C F C F
When a woman gets me down
Im lonely...
|-----------------------------------------------------------------------------|
|-----------------------------------------------------------------------------|
|-----------------------------------------------------------------------------|
|--------------------------------5--------------------------------------------|
|--------3~~--%---------4~~--%---5--------------------------------------------|
|--1-1-1----------2-2-2----------3-%-%-%-%-%-%-%-%-%-%-%-%--------------------|
.
F C F G F C Bb _F
Ride on Ride on Ride on Ride on
F C C G (E) _F
Ride on Ride on

Little solo
|----------------------15-----------------------------------------------------|
|-16b18-r16-13---16r15b17---15b17-13-15p13-13---------------------------------|
|-----------------------------------------------12r10--8~~~~~-----------------|
|-----------------------------------------------------------------------------|
|-----------------------------------------------------------------------------|
|-----------------------------------------------------------------------------|
. ~ . . ~
Main solo
|----------------------------------|
|-16b18-r16-13-13~\------13-13b17--|
|---------------------/14----------|
|----------------------------------|
|----------------------------------|
|----------------------------------|
. .
|-------8--------------------------------------------------|
|---------11p8----8----------------------------------------|
|-10b12--------10---10b12r10p8---------10b12r10-8~~~~------|
|------------------------------10--------------------------|
|----------------------------------------------------------|
|----------------------------------------------------------|
. ~
????????????????????
|-----------------------------------------------------------------------------|
|------8----------8-11p8-------8-11p8------8-11b13----------------------------|
|--10b12-----10b12-------10b12--------10b12-----------------------------------|
|-----------------------------------------------------------------------------|
|-----------------------------------------------------------------------------|
|-----------------------------------------------------------------------------|

|--8-----------------------------------------8-10-11~~~~----------------------|
|----11p8----------------------------8-10-11----------------------------------|
|--------11p10p8----8~~~~-------8-10------------------------------------------|
|----------------10--------8/10-----------------------------------------------|
|-----------------------------------------------------------------------------|
|-----------------------------------------------------------------------------|
. .

|--10b12r10-8-h11p8-----8--8-8---15r17--17r15--13-12----12--------------------|
|-------------------/10------------------------------13---13~~~~\-------------|
|-----------------------------------------------------------------------------|
|-----------------------------------------------------------------------------|
|-----------------------------------------------------------------------------|
|-----------------------------------------------------------------------------|
. .
????????????????????

|-------------------------------------------------15-------------18-18===----|
|-15b17--15b17-%-%-%-%--17r15-13-13---15-13-15/17----17----18b20----18b20-----|
|-----------------------------------------------------------------------------|
|-----------------------------------------------------------------------------|
|-----------------------------------------------------------------------------|
|-----------------------------------------------------------------------------|
. . ~
?????????????????
|--17-18-15---18p17p15--------------------------------------------------------|
|----------------------18p17p15-18p17p15--------------------------------------|
|-----------------------------------------17p15-15-17-15-17~~~~~\-------------|
|-----------------------------------------------------------------------------|
|-----------------------------------------------------------------------------|
|-----------------------------------------------------------------------------|
. . .
????????????????????????????????????????????

|----------------------------------------------------------------|
|----------------------------8-11p8------------------------------|
|--8-------8-------8-?--------------10p8-10~~~~------------------|
|----10-10-----8h10 ---%-%---------------------------------------|
|----------------------------------------------------------------|
|----------------------------------------------------------------|
^ @ \--------/
try fast stuff
with ? = 8 or 10
????????????????????????
|------8------------------------------------------------------------|
|-----8--11p8-------------------------------------------------------|
|---10--------10p8-8-10p8----8--------------------------------------|
|-------------------------10---10-10~~~~----------------------------|
|-------------------------------------------------------------------|
|-------------------------------------------------------------------|
. ^ .
|-------------------8-10-11r10-8~~~-|
|-----------8-10-11-----------------|
|------8-10-------------------------|
|--/10------------------------------|
|-----------------------------------|
|-----------------------------------|
.
|------13-----------13-----------------------------|
|---------16b18~~~-----16p13-----------------------|
|--/14-----------------------16p15p13--------------|
|-------------------------------------15~~~\-------|
|--------------------------------------------------|
|--------------------------------------------------|

|------------------------------------------------------------|
|-----15-17b19---17-15-17b19-17b19--17b19-17b19~~~\----------|
|--17--------------------------------------------------------|
|------------------------------------------------------------|
|------------------------------------------------------------|
|------------------------------------------------------------|
. .
?????????????????
|-----------------------------------------------------------------------------|
|--18b20--18b20-18b20--18p17p15-%%%%--18b20~~~~~~~~\--------------------------|
|-----------------------------------------------------------------------------|
|-----------------------------------------------------------------------------|
|-----------------------------------------------------------------------------|
|-----------------------------------------------------------------------------|
.

Ending lick - well some of it


|--8-------------8----------------------------------------------------------|
|----8--11b13------11p8-----------------------------------------------------|
|------------------------(insert lots---------------------------------------|
|-------------------------------------of -----------------------------------|
|----------------------------------------notes here)------------------------|
|-------------------------------------------------------11--8~~~~~~\--------|
^
b bend
r release
h hammer-on
p pull-off
^ slight-bend
~ vibrato
/\ slides
. staccato
% repeat last lick
= hold note
@ semi-harmonic
Rock'n'roll aint Noise Pollution.tab

Rock'n'roll aint Noise Pollution


AC/DC

Intro
|-------------||------------------|------------------|-----------------------||
|-------------||------------------|------------------|-----------------------||
|--1---2---4--||.--2---2---4------|-------1---2---4--|---2---2---4----------.||
|-------------||.-----------------|------------------|----------------------.||
|-------------||------------------|------------------|-----------------------||
|-------------||---------------3--|---0--------------|---------------3--0----||
Brian said :
Hey, there, all you middle men.
Throw away your fancy clothes. And while
you're out there sitting on a fence, so get of
your ass and come down here,
cause Rock'n'roll ain't no riddle man.
To me it makes good, good sense.
(--> it's chorus too)
Chicken-pickin (3 Times)
|-------------||------------------|------------------|-----------------------||
|--0---2---3--||---2---2---3------|-------0---2---3--|---2---2---3-----------||
|--1---2---4--||.--2---2---4------|-------1---2---4--|---2---2---4------9\\-.||
|-------------||.-----------------|---2--------------|------------------9\\-.||
|-------------||---0---0---0------|---2--------------|---0---0---0------7\\--||
|-------------||---------------3--|---0--------------|---------------3--0----||

E--------------|-------------------|-------------------|------------------|
B--0---2---3---|----2---2---3------|--------0---2---3--|---2---2----------|
G--1---2---4---|----2---2---4------|--------1---2---4--|---2---2-------1--|
D--------------|-------------------|---2---------------|---------------2--|
A--------------|----0---0---0------|---2---------------|---0---0-------2--|
E--------------|----------------3--|---0---------------|-----------3---0--|

E--------------|------------------|------------------|------------------------|
B--0---2---3---|---2---2---3------|-------0---2---3--|---2---2---3------------|
G--1---2---4---|---2---2---4------|-------1---2---4--|---2---2---4------9\\---|
D--------------|------------------|---2--------------|------------------9\\---|
A--------------|---0---0---0------|---2--------------|---0---0---0------7\\---|
E--------------|---------------3--|---0--------------|---------------3--0-----|

E--------------|------------------|------------------|------------------------|
B--0---2---3---|---2---2---3------|-------0---2---3--|---2---2---3------------|
G--1---2---4---|---2---2---4------|-------1---2---4--|---2---2---4------9-----|
D--------------|------------------|---2--------------|------------------9-----|
A--------------|---0---0---0------|---2--------------|---0---0---0------7-----|
E--------------|---------------3--|---0--------------|---------------3--0-----|
1st verse
---------
Heavy decibels are playin on my guitar. We got vibrations comin up from the
E-----|---------------------|-----------------------|-------------------------
B-----|---------------------|-----------------------|-------------------------
G-----|-------------------2-|--------------------9--|-----------------2-------
D--2--|-------------------2-|--2---4---2----9----9--|-----------------2-------
A--2--|---2---4---5-------0-|--0---0---0----9\11----|-2---4---2-------0-------
E--0--|---0---0---0---3-----|-----------------------|-0---0---0---3-----------

Well just listenin 2 the rock that's givin 2 much noise. Are U
E---------------------|----------------------|--------------------------------
B---------------------|----------------------|--------------------------------
G--------------4------|-------------------2--|--------------------4---4-------
D--2---4---2-------6--|-------------------2--|-----4---2------------6---6-----
A--0---0---0----------|--2---4----5-------0--|-----0---0----------------------
E---------------------|--0---0----0---3------|--------------------------------

deaf, U wanna hear some more. We're just


E----------------------------|------------------------------------------------
B----------------------------|------------------------------------------------
G-------------------------2--|---2---------2----2-----------------------------
D-------------------------2--|---2----4----2----2----4------------------------
A--2-----4-----2----------0--|---0----0----0----0----0------------------------
E--0-----0-----0-----3-------|----------------------------0-------------------

talkin' about the future, forget about the past. It'll


E---------------------------------------|-------------------------------------
B----------------------3----------------|----4--------------------------------
G--------9-------------2----------------|----4--------------9-----------------
D--------9-------------0----------------|----4--------------9-----------------
A--------7-------------0-------------2--|----2--------------7--------------7--
E--------0------------------------------|-------------------0--------------0--

Always be with us. It's never gonna die


E-------------------------------------|---------------------------------------
B---------------------3------------4--|---4---4---4---4---4---4---4---4-------
G----9----------------2------------4--|---4---4---4---4---4---4---4---4-------
D----9----------------0------------4--|---4---4---4---4---4---4---4---4-------
A----7----------------0------------2--|---2---2---2---2---2---2---2---2-------
E----0--------------------------------|---------------------------------------

Never gonna die. Rock'N' Roll ain't Noise Pollution.


E----------------------------------------|------------------------------------
B----4-------4-------4------1----2----3--|----2------2------3-----------------
G----4-------4-------4------0----2----4--|----2------2------4-----------9-----
D----4-------4-------4-------------------|----2------2------------------9-----
A----2-------2-------2-------------------|----0------0------0-----------7-----
E----------------------------------------|-------------------------3----0-----

Rock'n' Roll Ain't gonna die Rock'n' Roll Ain't noise pollution
E--------------|-------------------|-------------------|---------------------|
B--0---2---3---|----2---2---3------|--------0---2---3--|---2---2---3---------|
G--1---2---4---|----2---2---4------|--------1---2---4--|---2---2---4------1--|
D--------------|----2---2----------|---2---------------|---2---2----------2--|
A--------------|----0---0---0------|---2---------------|---0---0----------2--|
E--------------|----------------3--|---0---------------|--------------3---0--|
Rock'n' Roll It will survive. Yes it will
E--------------|--------------------|------------------||
B--0---2---3---|----2---2-----------|------------------||
G--1---2---4---|----2---2-------9^^-|-^^^^^^^^^^^-----.||
D--------------|----2---2-------9^^-|-^^^^^^^^^^^-----.||
A--------------|----0---0-------7^^-|-^^^^^^^^^^^------||
E--------------|------------3---0---|------------------||

2nd verse
---------
I took a look inside your bedroom door. You look so good lyin'on your bed
E-----|---------------------|-----------------------|-------------------------
B-----|---------------------|-----------------------|-------------------------
G-----|-------------------2-|--------------------9--|-----------------2-------
D--2--|-------------------2-|--2---4---2----9----9--|-----------------2-------
A--2--|---2---4---5-------0-|--0---0---0----9\11----|-2---4---2-------0-------
E--0--|---0---0---0---3-----|-----------------------|-0---0---0---3-----------

Well I asked U if U wanted any rhythm and love. You said you
E---------------------|----------------------|--------------------------------
B---------------------|----------------------|--------------------------------
G--------------4------|-------------------2--|--------------------4---4-------
D--2---4---2-------6--|-------------------2--|-----4---2------------6---6-----
A--0---0---0----------|--2---4----5-------0--|-----0---0----------------------
E---------------------|--0---0----0---3------|--------------------------------

wanna Rock 'n' Roll Instead. We're just


E----------------------------|------------------------------------------------
B----------------------------|------------------------------------------------
G-------------------------2--|---2---------2----2-----------------------------
D-------------------------2--|---2----4----2----2----4------------------------
A--2-----4-----2----------0--|---0----0----0----0----0------------------------
E--0-----0-----0-----3-------|----------------------------0-------------------

talkin' about the future, forget about the past. It'll


E---------------------------------------|-------------------------------------
B----------------------3----------------|----4--------------------------------
G--------9-------------2----------------|----4--------------9-----------------
D--------9-------------0----------------|----4--------------9-----------------
A--------7-------------0-------------2--|----2--------------7--------------7--
E--------0------------------------------|-------------------0--------------0--
Always be with us. It's never gonna die
E-------------------------------------|---------------------------------------
B---------------------3------------4--|---4---4---4---4---4---4---4---4-------
G----9----------------2------------4--|---4---4---4---4---4---4---4---4-------
D----9----------------0------------4--|---4---4---4---4---4---4---4---4-------
A----7----------------0------------2--|---2---2---2---2---2---2---2---2-------
E----0--------------------------------|---------------------------------------

Never gonna die. Rock'N' Roll ain't Noise Pollution.


E----------------------------------------|------------------------------------
B----4-------4-------4------1----2----3--|----2------2------3-----------------
G----4-------4-------4------0----2----4--|----2------2------4-----------9-----
D----4-------4-------4-------------------|----2------2------------------9-----
A----2-------2-------2-------------------|----0------0------0-----------7-----
E----------------------------------------|-------------------------3----0-----
Rock'n' Roll Ain't gonna die Rock'n' Roll Ain't noise pollution
E--------------|-------------------|-------------------|---------------------|
B--0---2---3---|----2---2---3------|--------0---2---3--|---2---2---3---------|
G--1---2---4---|----2---2---4------|--------1---2---4--|---2---2---4------1--|
D--------------|----2---2----------|---2---------------|---2---2----------2--|
A--------------|----0---0---0------|---2---------------|---0---0----------2--|
E--------------|----------------3--|---0---------------|--------------3---0--|

Rock'n' Roll It will survive. Yes it will


E--------------|--------------------|------------------||
B--0---2---3---|----2---2-----------|------------------||
G--1---2---4---|----2---2-------9^^-|-^^^^^^^^^^^-----.||
D--------------|----2---2-------9^^-|-^^^^^^^^^^^-----.||
A--------------|----0---0-------7^^-|-^^^^^^^^^^^------||
E--------------|------------3---0---|------------------||

(Solo)
E----------------------------------------------------------------------------
B--------------2--2^^----2--2^^--------5------\8--8--8-----------9--9\-------
G--2(4)2--\4---3--3^^----2--2^^----\6-----6---\9--9--9---9-9--9-----9\-------
D-------------------------------------------------------------------9\-------
A----------------------------------------------------------------------------
E----------------------------------------------------------------------------

E----------------------------------------------------------12--12--15-\\-----
B----------9--9------------15------------------15----------12--12--14-\\-----
G----------9--9----14(16)------(16)14--12--14------14--12--------------------
D---11__9--9--9--------------------------------------------------------------
A----------------------------------------------------------------------------
E----------------------------------------------------------------------------

E----------------------------------------------------------------------------
B---15-----------------------------------------------------------------------
G---14-----------------------------------------------------------------------
D----------------------------------------------------------------------------
A----------------------------------------------------------------------------
E----------------------------------------------------------------------------
Rock and Roll Damnation.pro

Rock and Roll Damnation


AC/DC

intro arpeggios

A D
E---------------------------|
B----------8------------7---|
B--------9------------7-----| 2 times
D------7------------7-------|
A---0------------5----------|
E---------------------------|

A
E---------------------------------------|
B------3--3-po-2-----3-3-po-2-----------|
G------2--2----2-----2-2----2-----------|
D------4 -4-po-2-----4-4-po-2-----------|
A---0--0--0----0--0--0-0----0--3-4-0----|
E---------------------------------------|
po = pull off

y' say that that you play too loud


well baby that's tough
y'say that you got too much
can't get enough
tell you that you look a fool
baby I'm a fool for you
say that you're my disease
well, shake your stuff

chorus
It's a R[G5]ock and [D/F#]Roll damn[A5]ation
[G5]ma's own [D/F#]whipping b[A5]oy
[G5]rock and [D/F#]roll damn[A5]ation
[D5]take a chance
[E5]while you still got a choice

verse2
you say that you want respect
honey grow up
everything that you've done for me
well thanks a lot
c'mon, get up off your bended knees
y'can , set your mind at ease
my temperature's running hot
and I've been waiting all night for a bite of what
you've got,and
Chorus:
(Intro section over the lyrics)}
just a boy with a toy ( ??? )
come on and take your choice
cos you're way out of reach
living in your sin you gotta practise what you preach

Chorus:}
It's a R[G5]ock and [D/F#]Roll damn[A5]ation
[G5]ma's own [D/F#]whipping b[A5]oy
[G5]rock and [D/F#]roll damn[A5]ation
[D5]take a chance
[D5]while you still got a choice

E-----------17------------
B---------------------17--
G---16b-16b---16b-16b-----
D-------------------------
A-------------------------
E-------------------------
Shake your foundations.tab
AC/DC

e|-----------|----------------------------------------------------
B|--8-----8--|----10-------10-------8-----10-------10-------8~~~~-
G|--7-----7--|----7--------7--------7-----7--------7--------7~~~~-
D|-----0-----|-0-----0--0-----0--0-----0-----0--0-----0--0--------
A|-----------|----------------------------------------------------
E|-----------|----------------------------------------------------
-----------3----------------------------------------------------|
-----5-----0-----------6--------5-----8--8-----8----------------|
-----5-----0-----------7--------5-----7--7-----7----------------|
--0-----0-----------0--------0-----0--------0-------------------|
----------------------------------------------------------------|
----------------------------------------------------------------|
She´s got balls.tab

She´s got balls


AC/DC

Intro & Verse Pre Chorus


E||----------------------|------------------------||-------------------|
B||----------------------|------------------------||-------------------|
G||--2----2----2----2----|--5----2----2----2-----*||-------------------|
D||--2----2----2----2----|--5----2----2----2-----*||--3----------------|
A||--0----0----0----0----|--3----0----0----0------||--3----------------|
E||----------------------|--------------------3---||--1----------------|

------------------|-------------------|--------------------|
------------------|-------------------|--------------------|
------------------|-------------------|----------5----5----|
------------------|--5----------------|----------5----5----|
------------------|--5----------------|----------3----3----|
------------------|--3----------------|--------------------|

Chorus 3rd Verse


|-----------------------|-----------------------||----------------------|
|-----------------------|-----------------------||----------------------|
|*--2----2----2----2----|--2----2----5----5----*||--2----2----2----2----|
|*--2----2----2----2----|--2----2----5----5----*||--2----2----2----2----|
|---0----0----0----0----|--0----0----3----3-----||--0----0----0----0----|
|-----------------------|-----------------------||----------------------|

----------------------|
----------------------|
--5----2----5----7----|
--5----2----5----7----|
--3----0----3----5----|
----------------------|
Lyrics:

She's got style that woman


Makes me smile that woman
She's got spunk that woman
Funk that woman
She's got speed my babe
Got what I need my babe
She's got the ability
To make a man outta me
[CHORUS]
But most important of all
Let me tell you
My lady's got balls
She's got balls
She's got soul my lady
Likes to crawl my lady
All around the floor on her hands and knees
Oh because she likes toplease me
[CHORUS]
And she's got taste my lady
Pace my lady
Makes my heart race
With her pretty face
She's got balls my lady
Likes to crawl my lady
Hands and knees all aroundthe floor
No one has to tell her whata fella is for
[CHORUS]
Shook Me All Night Long.tab

Shook Me All Night Long


AC/DC

-|-3--|-5--3-3---3-2-0-|----2-|---------|-3--|-5-3-3---3-2-3-||----|--------|-
-|-3--|-3------3-----3-|----3-|---------|-3--|-3-----3-----3-||----|--------|-
-|-0--|-0--------------|-33-2-|-----2---|-0--|-0-----------0-||----|-5-5--5-|-
-|----|----------------|----0-|-3-4---3-|----|-------------0-||-5--|-5-55-5-|-
-|----|----------------|------|---------|----|---------------||-5--|-3-35-3-|-
-|----|----------------|------|---------|----|---------------||-3--|----3---|-
opening D
-|----|----------||----|--------|-------|----||---------------------------|---
-|----|----------||----|--------|-------|----||---------------------------|---
-|--7-|----7---7-||----|-5-5--5-|--7-77-|-5--||-0-0---------0-------0-----|---
-|-57-|-5-57-5-7-||-5--|-5-55-5-|-57-77-|-5--||-0-0-------2---2---0---0---|---
-|-55-|-5-55-5-5-||-5--|-3-35-3-|-55-55-|-3--||-2-2-0-2-3-------2-------0-|---
-|-3--|-3-3--3---||-3--|----3---|-3-----|----||-3-3-----------------------|---
5x
-|-----------||----|--------|----|----------||----|--------|-------|----|-----
-|-----------||----|--------|----|----------||----|--------|-------|----|-----
-|-7-77--5-5-||----|-5-5--5-|--7-|----7---7-||----|-5-5--5-|--7-77-|-5--|-----
-|-7-77--5-5-||-5--|-5-55-5-|-57-|-5-57-5-7-||-5--|-5-55-5-|-57-77-|-5--|-----
-|-5-55--3-3-||-5--|-3-35-3-|-55-|-5-55-5-5-||-5--|-3-35-3-|-55-55-|-3--|-----
-|-----------||-3--|----3---|-3--|-3-3--3---||-3--|----3---|-3-----|----|-----
2x 3x
-||---------------------------|-----------||---------------------------|----|-
-||---------------------------|-----------||---------------------------|----|-
-||-0-0---------0-------0-----|-7-77--5-5-||-0-0---------0-------0-----|-7--|-
-||-0-0-------2---2---0---0---|-7-77--5-5-||-0-0-------2---2---0---0---|-7--|-
-||-2-2-0-2-3-------2-------0-|-5-55--3-3-||-2-2-0-2-3-------2-------0-|-5--|-
-||-3-3-----------------------|-----------||-3-3-----------------------|----|-
3x
------|-----------|----3------------|---------|-----------|-----------------|-
------|-----------|------3-6--------|---------|-----------|-----6-6-----8-8-|-
-77--5|-77777777--|-5^-------5^-3---|---------|-3-------3-|-5/7-----7/9-----|-
-77--5|-77777777--|---------------5-|-5---3-5-|----3--3---|-----------------|-
-55--3|-55555555--|-----------------|---3-----|-----3-----|-----------------|-
------|-----------|-----------------|---------|-----------|-----------------|-
hold-----release
-|---------||-10------|--------------|-13^13^-10-13-10-|-----------------|----
-|----8-10-||----10-8-|-11-11--8---8-|-----------------|-13-11--------13-|----
-|-10------||---------|----------9---|-----------------|-------12/-15----|----
-|---------||---------|--------------|-----------------|-----------------|----
-|---------||---------|--------------|-----------------|-----------------|----
-|---------||---------|--------------|-----------------|-----------------|----

-|-------------||----------------------|-18^18^-17-15-17-|----15----15-|------
-|----16----16-||----------------------|-----------------|-17----18----|------
-|-15----15----||-15-13----15-13----13-|-----------------|-------------|------
-|-------------||-------15-------15----|-----------------|-------------|------
-|-------------||----------------------|-----------------|-------------|------
-|-------------||----------------------|-----------------|-------------|------
-|-------------|----15-||----15-17-15-||---------------------------|------|---
-|----------15-|-17----||-17----------||---------------------------|------|---
-|-17-17-15----|-------||-------------||-0-0---------0-------0-----|-7-77-|---
-|-------------|-------||-------------||-0-0-------2---2---0---0---|-7-77-|---
-|-------------|-------||-------------||-2-2-0-2-3-------2-------0-|-5-55-|---
-|-------------|-------||-------------||-3-3-----------------------|------|---

-|------||----|-----------|---------------------|----------|------------------
-|------||----|-----------|---------------------|----------|------------------
-|-5--5-||-7--|-7-77--5-7-|-77777777777777777---|----------|------------------
-|-5--5-||-7--|-7-77--5-7-|-77777777777777777-5-|----------|------------------
-|-3--3-||-5--|-5-55--3-5-|-55555555555555555-5-|----------|------------------
-|------||----|-----------|-------------------3-|----------|------------------
4x
Shoot to Thrill.tab

Shoot to Thrill
AC/DC

Play this first, then a couple times over the next section
------------
------------
-------2----
-2-----2----
-0-3-4-0----
------------

This is the main riff for the verses & the 1st half of the solo
-3----2----3----2------2---------------------------------------------
-0----3----0----3------3---------------------------------------------
-0----2----0----2------2---2-----------------------------------------
-0----0----0----0------0---2-----------------------------------------
-------------------------3-0-----------------------------------------
---------------------------------------------------------------------

Or you can play it like this if your guitar sounds bad w/ open chords
( I think Angus plays open & Malcom plays power chords)
---------------------------------------------------------------------
---------------------------------------------------------------------
-7----7----7----7------7---------------------------------------------
-5----7----5----7------7---------------------------------------------
------5---------5------5--(7)----------------------------------------
-------------------------8-5-----------------------------------------
^ No one will notice if you dont play
| this whole chord & it's a pain in
+--- the ass, so dont worry about it!

This is the piece that comes before the chorus.


---------------------------------------------------------------------
---------------------------------------------------------------------
-5---------5------5---------5------7---------7-------------7---------
-5----5----5------5----5----5------7----7----7-------------7---------
-3----5----3------3----5----3------5----7----5-------------5---------
------3----------------3----------------5----------------------------

This little piece shows up all over the place, so figure the timing out.
---------------------------------------------------------------------
---------------------------------------------------------------------
---------------------------------------------------------------------
-2---2-2-2-2-2-2-2-2-2-2-2-2-2-2-2-----------------------------------
-2---2-2-2-2-2-2-2-2-2-2-2-2-2-2-2-----------------------------------
-0---3-3-0-3-3-0-3-3-0-3-3-0-3-3-0-----------------------------------

chorus:
---------------3---3---3-3-3-2---2---2-2-2--2---2---2-2-2------------
---------------0---0---0-0-0-3---3---3-3-3--3---3---3-3-3--0---------
-2---2---2-2-2-0---0---0-0-0-2---2---2-2-2--2---2---2-2-2--0---------
-2---2---2-2-2-0---0---0-0-0-0---0---0-0-0--0---0---0-0-0--0---------
-0---0---0-0-0-2---2---2-2-2-------------------------------^---------
---------------3---3---3-3-3-------------------------------|---------
Just smack the open strings --+
once as you change back to the 1st chord
Of course, there's always the easy way which sounds just as good...
---------------------------------------------------------------------
---------------------------------------------------------------------
-2---2---2-2-2---------------7---7---7-7-7--7---7---7-7-7------------
-2---2---2-2-2-5---5---5-5-5-7---7---7-7-7--7---7---7-7-7--0---------
-0---0---0-0-0-5---5---5-5-5-5---5---5-5-5--5---5---5-5-5--0---------
---------------3---3---3-3-3-----------------------------------------
Shot down in flames.tab

Shot down in flames


AC/DC

b=bend r=release Bend P.H.=Pinch Harmonic

D5 A
e -----------------|------------|---------------|------
B -----3-----3---3-|------------|-----3-----3-2-|------
G -0-2-2-0-2-2-0-2-|------------|-0-2-2-0-2-2-2-|------
D -0-----0---------|------------|-0-----0-----2-|------
A -----------------|------------|-------------0-|------
E -----------------|------------|---------------|------
/ Fig.1 Guitar 1 end fig.1 with fig.1
| A5 G5 D5 C5
|e --5---5-3--------|--------------
|B --5---5-3--------|--------------
|G -----------------|-7--7-5-------
|D -----------------|-7--7-5------- 5 times
|A -----------------|--------------
|E -----------------|--------------
|| Fig.1a Guitar 2 end fig.1a with fig.1a
|e -----------------|--------------
|B -----------------|-3--3---------
|G --2---2-0--------|-2--2--------- 10 times
|D --2---2-0--------|-0--0---------
|A --0---0----------|--------------
|E --------3--------|--------------
\
Fig.2 (I m really burnin up...) end fig.2 with fig.1
A5 G5 D5 C5 A5 G5
e -5-----5-3--------|-----------------------------------
B -5-----5-3--------|-3-----3--3-----3--2---------------
G ------------------|-0--2--2--0--2--2--2--2------------
D ------------------|----------------------2------------
A ------------------|-----------------------------------

http://www.guitartabs.cc/tablocate.php?filename=/a/ac_dc/shot_down_in_flames.tab (1
of 4) [3/15/2001 11:36:39 PM]

shot_down_in_flames.tab
E ------------------|-----------------------------------
D5 (Shot down in ...)
Fig.3 Guitar 1 end fig.3
e ------------------------------------------------------
B -------3--------3--------3--------3--------3----------
G -0--2--2--0--2--2--0--2--2--0--2--2--0--2--2--2-------
D -0--------0--------0--------0--------0--------0-------
A ------------------------------------------------------
E ------------------------------------------------------
(...flames) (Fig.4) (Shot down in Flames.)
/ A5 G5 D5 C5 A5 G5
|e ---------3--------------------------------------------
|B ---------3----3--3--3--3----3--1---1------------------
|G -2----2--0----0--0--0--2----2--0---0--0--------------- 2 times
|D -2----2--0----0--0--0--0----0-------------------------
|A -0----0------------------------3---3--3--0------------
|E ---------3--------------------------------------------
|Fig.4a
|e ---------3--------------------------------------------
|B ---------3-------------3----3--1----------------------
|G -2----2--0-------------2----2--0---------------------- 2 times
|D -2----2--0-------------0----0-------------------------
|A -0----0------------------------3----------------------
|E ---------3----------0---------------------0-----------
\
(Ain t it a shame,to be shot down in ---
flames.-- D5 with fig.3
e ------------------------------------------------------
B ------------------------------------------------------
G -----------0--2--2--0--2--2--0--2--2--0--2--2--0--2--2
D -----------0-----0--0-----0--0-----0--0-----0--0-----0
A ------------------------------------------------------
E ------------------------------------------------------
D5
Hey you! Angus! Shoot me! Shoot me!
A5 G5 PS D5 C5 PS=pick slide
e ------------------------------------------------------
B -------------------------3---3------------------------
G -2------2----------------2---2------------------------
D -2------2---------x\-----0---0----------x\------------
A -0------0---------x\\-------------3-----x\\-----------
E --------------3-----\---------------------\-----------
D5 C5 A5
A5 G5~~~~~ _b__r_ ~~~~~~~~~~~ b
e -----------------------|------------------------------
B ---------------------7-|-8-7------------------8-10----
G ---------------------7-|-8-7---5--7-------------------
D -7---7---7---7---------|------------------------------
A -----------------------|------------------------------
E -----------------------|------------------------------
G5
b b ~~~~~~~~~~~ D5 C5 b
e --------------------|-5-7-----------------------------
B 8-10--8-10----------|-----8-7-5---5-------------------
G --------------------|-----------7---7--5---7---5-6----
D --------------------|--------------------7---7-----7--
A --------------------|---------------------------------
E --------------------|---------------------------------
-P.H.--; D5 C5 A5 G5
A5 b r G5 b ~~~~~~~ b r
e ------------------------------------------------------
B ---------5-----5-------------x--5---------------------
G ---------5-----5-------------x--5--4-5----4-7-7-6-5-4-
D ------------7-----5--7--------------------------------
A -7--9-7-----------------------------------------------
E ------------------------------------------------------
Ugh! P.H.
D5 b. P.H.~~~~~~ ~~~~~~~ ~~~~~~ ~~~~~
e ------------------------------------------------------
B ------------------------------------------------------
G ----------------4----5-----5--------7-------9------11-
D -7-5--5-4---------------------------------------------
A ----------7-3-----------------------------------------
E ------------------------------------------------------
PH Yeah! Shot down in ....
~~~~~~ ~~~~~~ ~~~~~~ ~~~~~~ b
e ------------------------------------------------------
B --------------------------------20-22-----22\0--------
G -12------14------16------17---------------------------
D ------------------------------------------------------
A ------------------------------------------------------
E ------------------------------------------------------
Continue with Fig.4+4a (3 1\2 times) Fig. 3 (2 x)
Fig 4+4a (3 1\2 times) Fig. 3 (2x)
Outro: free
A5
Flames.----
e ------------------------------------------------------
B -------8-10--8-7-5---5-8-5-5-8-7-5---5----------------
G -------------------8---------------8---8-7-5-7-5---7-x
D -----0-------------------------------------------7----
A ------------------------------------------------------
E ------------------------------------------------------
b
e ------------------------------------------------------
B -------5-8-5-----5-8-5-----5-8-5-----5-5-8-5-----5-7-8
G -5-7-8-------7-8-------7-8-------7-8---------7-5-5-7-9
D ------------------------------------------------------
A ------------------------------------------------------
E ------------------------------------------------------
Pick Ugh!
Slide
e ------------------
B ------------------
G ------------------
D -x\---------------
A -x\\--------------
E ---\\-0-----------
Lyrics:
Shot down in flames

Out on the town, looking for a woman ,gonna give me good love
Anybody want to hang out with me? And maybe burn me up?
She was standing alone over by the jukebox like she's something to sell
I said, "Baby what's the going price"... She told me to go to hell
CHORUS:
Shot down in flames, Shot down in flames
Ain't it a shame , To be shot down in flames
Singles bar, got my eye on a honey hanging out everywhere
She minds my stay, she minds on her money I really don't care, no
Said, "Hey baby, you're driving me crazy" Laying out on the line
When a guy with a chip on his shoulder said "Toss off buddy she's mine"
CHORUS
Hey you Angus, shoot me, shoot...
CHORUS
I don't want to be in pain
Don't want to be shot down in flames
Sin City.tab

Sin City
AC/DC

b=bend
r=release
p=pull off
ub=unison bend
ph=pinch harmonics

4 Times then... Patt.1 (3 Times)


N.C. E5 B5 D5 A E B D A
e ----------------- e -------------.-------- e -----------2----------
B ----------------- B -------3--2--.-------- B -----------3--2-------
G ----------------- G ----4--2--2--.-------- G -----1--4--2--2-------
D ----------------- D -2--4--0--2--.-------- D -----2--4--0--2-------
A ------2-5-0-2---- A -2--2-----0--.-------- A -----2--2-----0-------
E --3-5---------0-- E -0-----------.--0--3-- E -0---0-----------0-3--

Patt.2
E B (G)
e ---------------.--2----2---2--2-|---2--2-2---2--------
B -----------0---.--3----3---3--3-|---3--3-3---3--------
G --------4--0---.--2----2---2--2-|---2--2-2---2--------
D -----2--4--0---.--0----0---0--0-|---0--0-0---0--------
A -----2--2--0---.----------------|---------------------
E -0---0---------.----------------|---------------------

Pre-Solo (with fig.2 2 Times!)


p p p p p p p p
e -0-12-0-0-10-0-0-9-0-0-7-0-0-5-0-0-0-3-0-0-5-0-0-3-0-0
B ------------------------------------------------------
G ------------------------------------------------------
D ------------------------------------------------------
A ------------------------------------------------------
E ------------------------------------------------------

p p p p p p p p bend~~~~~ b ~~~
e -5-0-0-3-0-0-5-0-0-3-0-0-5-0-0-3-0-0-5-0-0-3--0-0---------15-17-
B -------------------------------------------------3(5)-----------
G ----------------------------------------------------------------
D ----------------------------------------------------------------
A ----------------------------------------------------------------
E ----------------------------------------------------------------

Solo (with fig.1 (7 times))


E B D A E
~~~~~~~~~ bend~~~~ b b hold bend
e --------15-12-----------12----------------------------
B ---------------15-12-------15-17-----\-0--------------
G ---------------------14--------------------2-4--2-4-4-
D ------------------------------------------------------
A ------------------------------------------------------
E ------------------------------------------------------
D A
release~~~~~~~~
e ------------------------------------------------------
B ------------------------------------------------------
G -4--4--4--4--4--4--2-------------0--4-2-0-4-2-0-4-2-0-
D ------------------------------------------------------
A ------------------------------------------------------
E ------------------------------------------------------
D A
e ------------------------------------------------------
B ------------------------------------------------------
G 4-2-0-7-5-0-7-5-0-7-5-0-7-5-0-9-7-0-9-7-0-11-9-0-12-10
D ------------------------------------------------------
A ------------------------------------------------------
E ------------------------------------------------------
E B
~~~~~ b b~~~~~
e --------------------------------12---12-----12--------
B ------------------------------12---15----------15-17--
G 0-13-11-0-14-12-0-14\---14-------------14-16----------
D ------------------------------------------------------
A ------------------------------------------------------
E ------------------------------------------------------

D A E B
~~ ~~
e -15-12--12--------------------------------------------
B ------15--15-12---12----------------------------------
G ----------------14--14-12--14-12-x-14-12-12---14-12-12
D -------------------------14-----------------14--------
A ------------------------------------------------------
E ------------------------------------------------------
D A E B
~~~~ ~~~~~~~~ph~~~~ph~ph~~
e ------------------------------------------------------
B ------------------------------------------------------
G -------14-12-12--------14-12-12--12---12-12-12-12-12--
D -14-14-----------14-14--------------------------------
A ------------------------------------------------------
E ------------------------------------------------------
D A E B
ph r b~~~~~~~~~~~~~~~~
e -----------------------------------------------17-----
B -------------------\17-20-22-20--20-22----------------
G -------14----12---------------------------------------
D -14-14----14------------------------------------------
A ------------------------------------------------------
E ------------------------------------------------------
D A E E5 B5 D FIG.2
b r ~~~~~~ ub ub ub unison bend
e ------------------------------------------------------
B -20-24--20-17-17-------\-0---5-----7------8-----10----
G ---------------------------7-9--9-11--10-12--12-14----
D ------------------------------------------------------
A ------------------------------------------------------
E ------------------------------------------------------
ub ub ub b~~~~~ b
e -----------------------15-17---15-17-12-15-12----12---
B ---12-----13-----15---------------------------15----15
G 14-15--15-17--17-19--\--------------------------------
D ------------------------------------------------------
A ------------------------------------------------------
E ------------------------------------------------------
b~~~~~~~ b
e 12\--17-19-----17-20-\--------- e ----------------
B ------------------------------- B ----------------
G ------------------------------- G ----------------
D ------------------------------- D ----------------
A ------------------------------- A ----------------
E -----------------------------0- E -12\3/12-3/12\3-
Lyrics:
Sin City
Patt.1
Diamonds and dust
Home at last, rich man first
Lambourghinis, caviar
Dry martinis, Shangri-la
A
I got a burning feeling
B
Deep inside of me lit the oven
B/A B
But I'm gonna set it free
Patt.1
I'm going in to sin city
I'm gonna win in sin city
Where the lights are bright
Do the town tonight
I'm gonna win in sin city
(I'm gonna burn you baby)
Patt.1
Ladders and snakes
Ladders give, snakes take
Rich man, poor man, beggarman, thief
Ain't got a hope in hell, that's my belief
Fingers Finny, Diamond Jim
daggers ready, look out I'm coming in
E G A
So spin that wheel, cut that flack
AAnd roll those loaded dice
A B5
Bring on the dancing girls
B5
And put the champaign on ice
The Jack.crd

The Jack
AC/DC

The Jack
AC/DC

It's a 12 bar blues (E E E E A7 A7 E E B7 A7 E B7)for the chorus


and Just 4 bars of E and A7

4 times
|--0----------------|
|--0----------------|
|--1----------------|
|--2----------------|
|--2-----4--5-------|
|--0----------------|
4 times
|--3----------------|
|--2----------------|
|--2----------------|
|--2-----4---5------|
|--0----------------|
|--x----------------|
High Voltage.tab

High Voltage
AC/DC

-|---||-----|-------|---------||-----|-----|-----||-----|-----|-----||------|-
-|---||-----|-------|---------||-----|-----|-----||-----|-----|-----||------|-
-|---||-----|-------|---------||-----|-----|-----||-----|-----|-----||------|-
-|-2-||-2---|-5--7--|---------||-2---|-5---|-7---||-7---|-5---|-2---||-555-7|-
-|-2-||-2---|-5--7--|---------||-2---|-5---|-7---||-7---|-5---|-2---||-555-7|-
-|-0-||-0---|-3--5--|-3-5-3-3-||-0---|-3---|-5---||-5---|-3---|-0---||-333-5|-
11x 4x
-|--||-----|--------|---------||-----|------||-----|-----|-----||------|------
-|--||-----|--------|---------||-----|------||-----|-----|-----||------|------
-|5^||-----|--------|---------||-----|------||-----|-----|-----||------|------
-|--||-2---|-5--7---|---------||-2---|-5--7-||-7---|-5---|-2---||-555-7|------
-|--||-2---|-5--7---|---------||-2---|-5--7-||-7---|-5---|-2---||-555-7|------
-|--||-0---|-3--5---|-3-5-3-3-||-0---|-3--5-||-5---|-3---|-0---||-333-5|------
9x 4x
-|--||-----|--------|---------||----|-------||-----|-----|-----||------|------
-|--||-----|--------|---------||----|-------||-----|-----|-----||------|------
-|5^||-----|--------|---------||----|-------||-----|-----|-----||------|------
-|--||-2---|-5--7---|---------||-2--|-5--7--||-7---|-5---|-2---||-555-7|------
-|--||-2---|-5--7---|---------||-2--|-5--7--||-7---|-5---|-2---||-555-7|------
-|--||-0---|-3--5---|-3-5-3-3-||-0--|-3--5--||-5---|-3---|-0---||-333-5|------
3x 8x
-|--------||----------|----------------------|--------------------------------
-|--------||----------|----------------------|--------------------------------
-|--------||----------|----------------------|--------------------------------
-|--3-4-5-||--6-7-8-9-|---10---11----12---13-|--------------------------------
-|-314253-||-64758697-|-10-8-11-9-12-10-1311-|--------------------------------
-|-1-2-3--||-4-5-6-7--|--8----9---10----11---|--------------------------------
TNT.tab

TNT
AC/DC

(Verse)
(afer the chord 022, pause just a little bit)
-----------------------------------------------------------------------
-----------------------------------------------------------------------
-----------------------------------------------------------------------
-2-x5-7--7-5x-2--------------------------------------------------------
-2-x5-7--7-5x-2--------------------------------------------------------
-0-x3-5--5-3x-0--------------------------------------------------------
(Chorus)
(just play this when they say TNT)
-----------------------------------------------------------------------
-----------------------------------------------------------------------
-----------------------------------------------------------------------
-7-5-2-----------------------------------------------------------------
-7-5-2-----------------------------------------------------------------
-5-3-0-----------------------------------------------------------------
(Verse)
See me right out of the sunset, on your color tv screen,
I'm foralled as I can get, If you know what I mean,
Women to the left of me,
Women to the right,
Anit got no gun, aint got no knife,
So don't you start no fight

(Chorus)
Cause Im TNT,
I'm Dnyamyte,
TNT,
I'll win the fight,
TNT,
I'm a powerload,
TNT,
Watch me explode!

I'm dirty, I'm Mean, I'm not even clean.


I'm a wanted man,
Public Enemy number 1, if ya know what I mean
So lock up your daugter, lock up your wife,
Lock up the back door and run for your life,
The man is back in town,
So don't mess around
(Chorus)
Who made who.tab

Who made who


AC_DC

D5 (x577xx) B5 (x244xx) A5 (x02200) D5 Dsus4 (xxx121010)


...the Databank
e ----------------------------------------------------------
b ----------------------------------------------------------
g -14-------------------------------------------------------
D ----\-0-4-5-0-7-0-5-0-4-0-5-0-7-0-5-0-4-0-5-0-7-0-5-0-4-0-
A ----------------------------------------------------------
E ----------------------------------------------------------
e ----------------------------------------------------------
b ----------------------------------------------------------
g ----------------------------------------------------------
D 5-0-7-0-5-0-4-0-5-0-7-0-5-0-4-0-5-0-7-0-5-0-4-0-5-0-7-0-5-
A ----------------------------------------------------------
E ----------------------------------------------------------
...year. B5
T T T T T T T T
e ----------------------------------------------------------
b ----------------------------------------------------------
g ----------------------------------------------------------
D 0-4-0-5-0-7-0-5-0-----------------------------------------
A -------------------6-2-7-2-9-2-7-2-6-2-7-2-9-2-7-2-6-2-7-2
E ----------------------------------------------------------
A5
e ----------------------------------------------------------
b ----------------------------------------------------------
g ----------------------------------------------------------
D ----------------------------------------------------------
A 9-2-7-2-6-2-7-2-9-2-7-0-4-0-5-0-7-0-5-0-4-0-5-0-7-0-5-0-4-
E ----------------------------------------------------------
e ----------------------------------------------------------
b ----------------------------------------------------------
g ----------------------------------------------------------
D ----------------------------------------------------------
A 0-5-0-7-0-5-0-4-0-5-0-7-0-5-0-4-0-5-0-7-0-5-0-4-0-5-0-7-0-
E ----------------------------------------------------------
D5
e ----------------------------------------------------------
b ----------------------------------------------------------
g ----------------------------------------------------------
D ------------------------------------4-0-5-0-7-0-5-0-4-0-5-
A 5-0-4-0-5-0-7-0-5-0-4-0-5-0-7-0-5-0-----------------------
E ----------------------------------------------------------
e ----------------------------------------------------------
b ----------------------------------------------------------
g ----------------------------------------------------------
D 0-7-0-5-0-4-0-5-0-7-0-5-0-4-0-5-0-7-0-5-0-4-0-5-0-7-0-5-0-
A ----------------------------------------------------------
E ----------------------------------------------------------
e ------------------------------------------------|
b -------------------------------------------------
g -------------------------------------------------
D 4-0-5-0-7-0-5-0-4-0-5-0-7-0-5-0-4-0-5-0-7-0-5-0--
A -------------------------------------------------
E ------------------------------------------------|
Refrain fig.:
D Dsus4
e ---------------------------------------
b -------3-----------------------3-------
g ---2----------2-----------2---------2--
D 4----------------4---5----------------- played 4 times
A ---------------------------------------
E ---------------------------------------
A A7sus4 D/A A Yeah!
e ----------------------------------------------------------
b -2----3----3----2------------3---3------2------2--2-------
g -2----2----2----2------------2---2------2------2--2-------
D -2----5----4----2------------5---4------2------2--2-------
A -0----0----0----0------------0---0------0------0--0-------
E ----------------------------------------------------------
Lyrics:
Who made who
The video game says "Play me"
Face it on a level but it takes you every time on a one on one
Feeling running down your spine
Nothing gonna save your one last dime cause it owns you
Through and through
The databank knows my number
http://www.guitartabs.cc/tablocate.php?filename=/a/ac_dc/who_made_who.tab (2 of 3)
[3/15/2001 11:36:45 PM]

who_made_who.tab
Says I gotta pay cause I made the grade last year
Feel it when I turn the screw
Kicks you round the world, there ain't a thing that it can't do
Do to you
CHORUS:
Who made who, who made you?
Who made who, ain't nobody told you?
Who made who, who made you?
If you made them and they made you
Who picked up the bill, and who made who? (or who picked up the glue,...)(?)

Who made who, who turned the screw?


Satellites send me picture
Get it in the eye, take it to the world spinning like a dynamo
Feel it going round and round
Running out of chicks, you got no line in the naked town
So don't look down, no
CHORUS
Ain't nobody told you, who made who?
Whole Lotta Rosie.tab

Whole Lotta Rosie


AC/DC

intro riff
(Repeated)
|-----------------------------------------------------------------
|-----------------------------------------------------------------
|-----------------------------------------------------------------
|---2---5-------7-------5---2-------------------------------------
|---0---3---0---5---0---3---0-------------------------------------
|-----------------------------------------------------------------

And the verse riff is just a variation of the Intro riff


| first part |
|-----------------------------------------------------------------
|-----------------------------------------------------------------
|-------------------------------2-----------2-----------2---------
|---2---------------------------2-----------2-----------2---------
|---0---3---0---5---0---3---0-------0---0-------0---0-------------
|-----------------------------------------------------------------
You Shook Me All Night Long.tab

You Shook Me All Night Long


AC/DC

Intro: Repeat a couple of times. Main riff:


>-------------------------------2---------|------------------------------------
>-------------------------------3---------|------------------------------------
>-8--10---8---8---7-h-8-p-7-----2---------|-0--5--5--0--5--0--7----------------
>-7---7---7---7-------------7---0---3-p-0-|-0--5--5--0--5--0--7----------------
>-----------------------------------------|------------------------------------
>-----------------------------------------|------------------------------------
>----------------
>---0-0-7-0-7-0--
>---0-0-7-0-7-0--
>----------------
>----------------
Intro:
|3---------------|5--3------3----|---------------|---------------|
|3---------------|3--3--3-----3--|3--------------|3--------------|
|0---------------|0---0----0-----|2--------------|2--------------|
|----------------|---------------|0----------3-4-|0-----3-4--3-4-|
|----------------|---------------|---------------|---------------|
|----------------|---------------|---------------|---------------|

Verse : | G | C C G C G | D | G G C G C | :||
(Just follow the beat)

Chorus : | G A B | C B | D | A B C B | :||

Main riff for first verse:


--3--------(3)-(3)--3----(3)--3----2------3---3---2-----3---2-------------------
--0---------1---1---0-----1---0----3------0---0---3-----0---3-------------------
--0---------0---0---0-----0---0----2------0---0---2-----0---2-------------------
--0--------(2)-(2)--0-----2---0----0------0---0---0-----0---0-------------------
-(2)--------3---3--(2)----3--(2)---------(2)-(2)-------(2)----------------------
--3-----------------3---------3-----------3---3---------3-----------------------

Second Verse (one guitar plays same as first verse, other plays this):
--3--------(3)-(3)--3----(3)--3----2------3---3---2-----3---2-------------------
--0---------1---1---0-----1---0----3------3---3---3-----3---3-------------------
--0---------0---0---0-----0---0----2------0---0---2-----0---2-------------------
--0--------(2)-(2)--0-----2---0----0------0---0---0-----0---0-------------------
-(2)--------3---3--(2)----3--(2)---------(2)-(2)-------(2)----------------------
--3-----------------3---------3-------------------------------------------------
Chorus (both guitars):

-----3-----------------------2-------------------------3------------------------
-----3---------3-----3-------3----------3--------3-----0------------------------
-----0-----------0-----0-----2------------0----0-------0------------------------
-0---0--------------------0--0-------------------------0------------------------
-2---2---0-2-3-----2--------------0-2-3------2---------2------------------------
-3---3----------------------------------------------3--3------------------------
You Shook me All Night Long 2.tab

You Shook me All Night Long 2


AC/DC

Intro:
--|3---------------|5--3------3----|---------------|---------------|
--|3---------------|3--3--3-----3--|3--------------|3--------------|
--|0---------------|0---0----0-----|2--------------|2--------------|
--|----------------|---------------|0----------3-4-|0-----3-4--3-4-|
|----------------|---------------|---------------|---------------|
|----------------|---------------|---------------|---------------|
|3---------------|5--3------3----|---------------|3--------------|
|3---------------|3--3--3-----3--|3--------------|2--------------|
|0---------------|0---0----0-----|2--------------|0--------------|
|----------------|---------------|0----------3-4-|---------------|
|----------------|---------------|---------------|---------------|
|----------------|---------------|---------------|---------------|

Verse : | G | C C G C G | D | G G C G C | :||

Main riff for first verse:


G C C G C G D G G D G D
--3--------(3)-(3)--3----(3)--3----2------3---3---2-----3---2-------------------
--0---------1---1---0-----1---0----3------0---0---3-----0---3-------------------
--0---------0---0---0-----0---0----2------0---0---2-----0---2-------------------
--0--------(2)-(2)--0-----2---0----0------0---0---0-----0---0-------------------
-(2)--------3---3--(2)----3--(2)---------(2)-(2)-------(2)----------------------
--3-----------------3---------3-----------3---3---------3-----------------------

Second Verse (one guitar plays same as first verse, other plays this):
--3--------(3)-(3)--3----(3)--3----2------3---3---2-----3---2-------------------
--0---------1---1---0-----1---0----3------3---3---3-----3---3-------------------
--0---------0---0---0-----0---0----2------0---0---2-----0---2-------------------
--0--------(2)-(2)--0-----2---0----0------0---0---0-----0---0-------------------
-(2)--------3---3--(2)----3--(2)---------(2)-(2)-------(2)----------------------
--3-----------------3---------3-------------------------------------------------

Verse
She was a fast machine
She kept my motor clean
She was the best damn woman I had ever seen
She has the sightless eyes
Telling me no lies
And knocking me out with those American thighs

Takin' more than her share


Had me fighting for air
She told me to come but I was already there

Cos the walls start shakin'


The ground was quakin'
My mind was achin'
And we were making it and.......
Chorus : | G A B | C B | D | A B C B | :||
(both guitars):
-----3-----------------------2-------------------------3------------------------
-----3---------3-----3-------3----------3--------3-----0------------------------
-----0-----------0-----0-----2------------0----0-------0------------------------
-0---0--------------------0--0-------------------------0------------------------
-2---2---0-2-3-----2--------------0-2-3------2---------2------------------------
-3---3----------------------------------------------3--3------------------------
CHORUS Verse:
You shook me all night long (repeat)
Verse
Working double time on the seduction line
She was one of a kind, she was mine all mine
Had to cool it down to take another round
Then I got back in the ring to take another swing
Cos the walls start shakin'... etc...
Safe in New York City.tab

Safe in New York City


AC/DC

Intro:
G - E (where only the 6 and 5 strings are played)

Main riff for the verses (always played at the end of each verse):
E
D |------------------------------------------------------------------------------|
A |-----1---0----------1---0--------1--0-----------1---0-------------------2-----|
E |--0----------3--0----------3--0----------3---0-----------3--0-----------0-----|

Chorus:
(For the bass):
E
D|---------------------------------------|
A|--2------3--5--6--5--3--5--3-0--3--0---|
E|--0------------------------------------|

(For the guitar): the chords for the notes above.

C5 D5 D5# D5 C5 D5 C5 and 5 and 4 string played without fingers


I feel safe in New York Ci ty
TNT 3.tab

TNT
AC/DC

solo

|-----------------------------------------------------|
|-----------------------------------------------------|
|----------------2------2-------------------2---------|
|----------------2------2-------------------2---------|
|---2------------0------0------2------------0---------|
|---0--------3------3-----3----0-----3----------------|

|-----------------------------------------------------|
|-----------------------------------------------------|
|----------------2------2-------------------2---------|
|----------------2------2-------------------2---------|
|---2------------0------0------2------------0---------|
|---0--------3------3-----3----0-----3----------------|

|-----------------------------------------------------|
|-----------------------------------------------------|
|----------------2------2-------------------2---------|
|----------------2------2-------------------2---------|
|---2------------0------0------2------------0---------|
|---0--------3------3-----3----0-----3----------------|

|-----------------------------------------------------|
|-----------------------------------------------------|
|----------------2------2-------------------2---------|
|----------------2------2-------------------2---------|
|---2------------0------0------2------------0---------|
|---0--------3------3-----3----0-----3----------------|

|-----------------------------------------------------|
|-----------------------------------------------------|
|----------------2------2-------------------2---------|
|----------------2------2-------------------2---------|
|---2------------0------0------2------------0---------|
|---0--------3------3-----3----0-----3----------------|

|-----------------------------------------------------|
|-----------------------------------------------------|
|----------------2------2-------------------2---------|
|----------------2------2-------------------2---------|
|---2------------0------0------2------------0---------|
|---0--------3------3-----3----0-----3----------------|

|-----------------------------------------------------|
|-----------------------------------------------------|
|----------------2------2-------------------2---------|
|----------------2------2-------------------2---------|
|---2------------0------0------2------------0---------|
|---0--------3------3-----3----0-----3----------------|
|-----------------------------------------------------|
|-----------------------------------------------------|
|----------------2------2-------------------2---------|
|----------------2------2-------------------2---------|
|---2------------0------0------2------------0---------|
|---0--------3------3-----3----0-----3----------------|

|-----------------------------------------------------|
|-----------------------------------------------------|
|----------------2------2-------------------2---------|
|----------------2------2-------------------2---------|
|---2------------0------0------2------------0---------|
|---0--------3------3-----3----0-----3----------------|

|-----------------------------------------------------|
|-----------------------------------------------------|
|----------------2------2-------------------2---------|
|----------------2------2-------------------2---------|
|---2------------0------0------2------------0---------|
|---0--------3------3-----3----0-----3----------------|

|-----------------------------------------------------|
|-----------------------------------------------------|
|----------------2------2-------------------2---------|
|----------------2------2-------------------2---------|
|---2------------0------0------2------------0---------|
|---0--------3------3-----3----0-----3----------------|
^let ring

Refrain

|-------------------------------------|
|-------------------------------------|
|----2--------------------------------|
|----2--------------------------------|
|----0------2-------------------------|
|-------3---0---X-X-X-X-X-X-X-X-------|

|-------------------------------------|
|-------------------------------------|
|----2--------------------------------|
|----2--------------------------------|
|----0------2-------------------------|
|-------3---0---X-X-X-X-X-X-X-X-------|

|-------------------------------------|
|-------------------------------------|
|----2--------------------------------|
|----2--------------------------------|
|----0------2-------------------------|
|-------3---0---X-X-X-X-X-X-X-X-------|

|-------------------------------------|
|-------------------------------------|
|----2--------------------------------|
|----2--------------------------------|
|----0------2-------------------------|
|-------3---0-------------------------|
^ let ring
do verses again and refrain a couple more times

at the end youll get to this part it is really easy

|------------------------------
|------------------------------
|----3----4-----5----6----7---
|--3-3--4-4--5-5--6-6--7-7--
|--3-1--4-2--5-3--6-4--7-5--
|--1----2-----3----4----5----
Carry Me Home.tab

Carry Me Home
AC/DC

Intro (and solo parts):


E|----------------------|----------------------|----------------------|
B|----------------------|----------------------|----------------------|
G|--7----7----7----7----|----------------------|--7----7----7----7----|
D|--7----7----7----7----|--8----8----7----7----|--7----7----7----7----|
A|--5----5----5----5----|--8----8----7----7----|--5----5----5----5----|
E|----------------------|--6----6----5----5----|----------------------|
|----------------------|----------------------|----------------------|
|----------------------|----------------------|----------------------|
|--7----7----7----7----|----------------------|----------------------|
|--7----7----7----7----|--5----5----5----5----|--3----3----3----3----|
|--5----5----5----5----|--5----5----5----5----|--3----3----3----3----|
|----------------------|--3----3----3----3----|--1----1----1----1----|

|--------------------------------------|--------------------------------------|
|--------------------------------------|--------------------------------------|
|--------------------------------------|--------------------------------------|
|--------------------------------------|--7--7--7--7--7--7--7--7--7--7--7--7--|
|--7--7--7--7--7--7--7--7--7--7--7--7--|--7--7--7--7--7--7--7--7--7--7--7--7--|
|--5--5--5--5--5--5--5--5--5--5--5--5--|--5--5--5--5--5--5--5--5--5--5--5--5--|
My tender...
|----------------------|----------------------|--------------------------|
|----------------------|----------------------|--------------------------|
|--7----7----7----7----|----------------------|--------------------------|
|--7----7----7----7----|--8----8----8----8----|--10----10----10----10----|
|--5----5----5----5----|--8----8----8----8----|--10----10----10----10----|
|----------------------|--6----6----6----6----|--8-----8-----8-----8-----|
dance band...
|----------------------|----------------------|----------------------|
|----------------------|----------------------|----------------------|
|--7----7----7----7----|--7----7----7----7----|----------------------|
|--7----7----7----7----|--7----7----7----7----|--8----8----8----8----|
|--5----5----5----5----|--5----5----5----5----|--8----8----8----8----|
|----------------------|----------------------|--6----6----6----6----|
I don't know...
|--------------------------|----------------------|----------------------|
|--------------------------|----------------------|----------------------|
|--------------------------|--7----7----7----7----|--7----7----7----7----|
|--10----10----10----10----|--7----7----7----7----|--7----7----7----7----|
|--10----10----10----10----|--5----5----5----5----|--5----5----5----5----|
|--8-----8-----8-----8-----|----------------------|----------------------|

|----------------------|--------------------------|----------------------|
|----------------------|--------------------------|----------------------|
|----------------------|--------------------------|--7----7----7----7----|
|--8----8----8----8----|--10----10----10----10----|--7----7----7----7----|
|--8----8----8----8----|--10----10----10----10----|--5----5----5----5----|
|--6----6----6----6----|--8-----8-----8-----8-----|----------------------|
I got my....
|----------------------|----------------------|--------------------------|
|----------------------|----------------------|--------------------------|
|--7----7----7----7----|----------------------|--------------------------|
|--7----7----7----7----|--8----8----8----8----|--10----10----10----10----|
|--5----5----5----5----|--8----8----8----8----|--10----10----10----10----|
|----------------------|--6----6----6----6----|--8-----8-----8-----8-----|

carry me home...
|----------------------|----------------------|----------------------|
|----------------------|----------------------|----------------------|
|--7----7----7----7----|----------------------|----------------------|
|--7----7----7----7----|--5----5----5----5----|--5----5----5----5----|
|--5----5----5----5----|--5----5----5----5----|--5----5----5----5----|
|----------------------|--3----3----3----3----|--3----3----3----3----|

carry me home... carry me home...


|----------------------|----------------------|----------------------|
|----------------------|----------------------|----------------------|
|--7----7----7----7----|--7----7----7----7----|----------------------|
|--7----7----7----7----|--7----7----7----7----|--5----5----5----5----|
|--5----5----5----5----|--5----5----5----5----|--5----5----5----5----|
|----------------------|----------------------|--3----3----3----3----|

like a truck...
|----------------------|--------------------------------------|
|----------------------|--------------------------------------|
|----------------------|--------------------------------------|
|--5----5----5----5----|--------------------------------------|
|--5----5----5----5----|--7--7--7--7--7--7--7--7--7--7--7--7--|
|--3----3----3----3----|--5--5--5--5--5--5--5--5--5--5--5--5--|

to verse:
|--------------------------------------|
|--------------------------------------|
|--------------------------------------|
|--7--7--7--7--7--7--7--7--7--7--7--7--|
|--7--7--7--7--7--7--7--7--7--7--7--7--|
|--5--5--5--5--5--5--5--5--5--5--5--5--|
Cold Hearted Man.tab

Cold Hearted Man


AC/DC

Intro
E|----------------------|-------------------|---------------------|
B|----------------------|-------------------|---------------------|
G|--2------5------------|--4----------------|--7------5-----------|
D|--2------5------0-2---|--5----------------|--7------5------5----|
A|--0------3------------|--5----------------|--5------3------5----|
E|----------------------|--3----------------|----------------3----|
Verse:
|-------------------|------------------|-------------------|------------------|
|-------------------|------------------|-------------------|------------------|
|--2----------------|------------------|--2----------------|------------------|
|--2----------------|------------------|--2----------------|------------------|
|--0----------------|------------------|--0----------------|------------------|
|-------------------|------------------|-------------------|------------------|

|-------------------|------------------|-------------------|------------------|
|-------------------|------------------|-------------------|------------------|
|--5----------------|------------------|-------------------|------------------|
|--5----------------|------------------|--5----------------|------------------|
|--3----------------|------------------|--5----------------|------------------|
|-------------------|------------------|--3----------------|------------------|

|--------------------|--------------------|-------------------|
|--------------------|--------------------|-------------------|
|--5------7----------|---------2----------|--2----------------|
|--5------7----------|--5------2----------|--2----------------|
|--3------5----------|--5------0----------|--0----------------|
|--------------------|--3-----------------|-------------------|

|------------------|-------------------|------------------|-------------------|
|------------------|-------------------|------------------|-------------------|
|------------------|--5----------------|------------------|-------------------|
|------------------|--5----------------|------------------|--5----------------|
|------------------|--3----------------|------------------|--5----------------|
|------------------|-------------------|------------------|--3----------------|

Chorus:
|---------------------|-------------------|----------------------|
|---------------------|-------------------|----------------------|
|--7------5-----------|--2----------------|--2------5------------|
|--7------5------5----|--2----------------|--2------5------0-2---|
|--5------3------5----|--0----------------|--0------3------------|
|----------------3----|-------------------|----------------------|

|-------------------|------------------------|--------------------|
|-------------------|------------------------|--------------------|
|--4----------------|----4--4----4--4--4--4--|--7------6----------|
|--5----------------|----5--5----5--5--5--5--|--7------7----------|
|--5----------------|----5--5----5--5--5--5--|--5------7----------|
|--3----------------|----3--3----3--3--3--3--|---------5----------|
|----------------------|-------------------|------------------------|
|----------------------|-------------------|------------------------|
|--2------5------------|--4----------------|----4--4----4--4--4--4--|
|--2------5------0-2---|--5----------------|----5--5----5--5--5--5--|
|--0------3------------|--5----------------|----5--5----5--5--5--5--|
|----------------------|--3----------------|----3--3----3--3--3--3--|

|--------------------|----------------------|-------------------|
|--------------------|----------------------|-------------------|
|--7------6----------|--2------5------------|-------------------|
|--7------7----------|--2------5------0-2---|--5----------------|
|--5------7----------|--0------3------------|--5----------------|
|---------5----------|----------------------|--3----------------|

after 2nd chorus:


|---------------------|-------------------|-------------------------|
|---------------------|-------------------|-------------------------|
|--7------5-----------|--2----------------|-----------5-------------|
|--7------5------5----|--2----------------|--7-----------5----------|
|--5------3------5----|--0----------------|-----7--7--------7/-9----|
|----------------3----|-------------------|-------------------------|

|----------------------|-------------------------|----------------------|
|----------------------|-------------------------|----------------------|
|--7--------5----------|-----------5-------------|--7--------5----------|
|-----7----------------|--7-----------5----------|-----7----------------|
|--------7-------------|-----7--7--------7/-9----|--------7-------------|
|----------------------|-------------------------|----------------------|
Satellite Blues.tab

Satellite Blues
Ac/Dc

Intro + verse:
E|------------------------|-------------------|----3--3-----3---------|
B|------------------------|----------------3--|----3--3--3--3--3------|
G|--0--2--0----0--2--2----|----------------2--|----0--0--2--0--2------|
D|--0--2--0----0--2--2----|----------------0--|----0--0--0--0--0------|
A|--0--0--0----0--0--0----|-------------------|-----------------------|
E|------------------------|-------------------|-----------------------|

before chorus: new satellite


|-------------------|----3--3-----3----------|------------------|
|----------------3--|----3--3--3--3--3----3--|------------------|
|----------------2--|----0--0--2--0--2----2--|------------------|
|----------------0--|----0--0--0--0--0----0--|------------------|
|-------------------|------------------------|------------------|
|-------------------|------------------------|------------------|
Chorus:
blues new satellite blues
|------------------------|-----------------------|
|------------------------|--------------------3--|
|--0--2--0----0--2--2----|------2--0----2--2--2--|
|--0--2--0----0--2--2----|------2--0----2--2--0--|
|--0--0--0----0--0--0----|------0-------0--0-----|
|------------------------|-----------------------|

new satellite blues


|----3--3-----3----------|----3--3-----3--------|------------------------|
|----3--3--3--3--3----3--|----3--3--3--3--------|------------------------|
|----0--0--2--0--2----2--|----0--0--2--0--------|--0--2--0----0--2--2----|
|----0--0--0--0--0----0--|----0--0--0--0--------|--0--2--0----0--2--2----|
|------------------------|----------------------|--0--0--0----0--0--0----|
|------------------------|----------------------|------------------------|

new satellite blues to verse:


|-----------------------|----3--3-----3-------3--|----------3-----3------|
|--------------------3--|----3--3--3--3--3----3--|----1--1--3--1--3------|
|------2--0----2--2--2--|----0--0--2--0--2----0--|----0--0--0--0--0------|
|------2--0----2--2--0--|----0--0--0--0--0----0--|----2--2--0--2--0------|
|------0-------0--0-----|------------------------|----3--3-----3---------|
|-----------------------|------------------------|-----------------------|

end of 2nd chorus: to solo:


|----------3-----3----3--|----------3-----3----3--|----------3-----3-------|
|----1--1--3--1--3----3--|----1--1--3--1--3----3--|----1--1--3--1--3----3--|
|----0--0--0--0--0----0--|----0--0--0--0--0----0--|----0--0--0--0--0----2--|
|----2--2--0--2--0----0--|----2--2--0--2--0----0--|----2--2--0--2--0----0--|
|----3--3-----3----------|----3--3-----3----------|----3--3-----3----------|
|------------------------|------------------------|------------------------|

solo chords same as 2nd chorus


chorus part till end:
|------------------------|-----------------------|
|------------------------|--------------------3--|
|--0--2--0----0--2--2----|------2--0----2--2--2--|
|--0--2--0----0--2--2----|------2--0----2--2--0--|
|--0--0--0----0--0--0----|------0-------0--0-----|
|------------------------|-----------------------|

|----3--3-----3-------3--|----------3-----3------|
|----3--3--3--3--3----3--|----1--1--3--1--3------|
|----0--0--2--0--2----0--|----0--0--0--0--0------|
|----0--0--0--0--0----0--|----2--2--0--2--0------|
|------------------------|----3--3-----3---------|
|------------------------|-----------------------|

end chords:
|--3----3---------3----|-------------------|-------------------|
|--3----3----3----3----|--3----------------|-------------------|
|--0----0----2----0----|--2----------------|--2----------------|
|--0----0----0----0----|--0----------------|--2----------------|
|----------------------|-------------------|--0----------------|
|----------------------|-------------------|-------------------|
Stiff Upper Lip.tab

Stiff Upper Lip


AC/DC

Only the intro.


E|-----------------5--|--------5--------------|---------------------5--|-------5--------------|
B|--------------8b-5--|--8--5--5----7--5-5----|-----7-------5----8b-5--|-8--x--5----7--5-5----|
G|--------------------|-------------7--5h6----|-----7-------5----------|----7-------7--5h6----|
D|--------------------|-----------------------|------------------------|----------------------|
A|--------------0--0--|--0--0--0----0--0-0-0--|--0--0----0--0----0--0--|-0--0--0----0--0-0-0--|
E|--------------------|-----------------------|------------------------|----------------------|

|---------------------5--|--------5--------------|--------------------5--|-------5------------|
|-----7-------5----8b-5--|--8--x--5----7--5-5----|----7-------5----8b-5--|-8--x--5---7--5-5---|
|-----7-------5----------|-----7-------7--5h6----|----7-------5----------|----7------7--5h6---|
|------------------------|-----------------------|-----------------------|--------------------|
|--0--0----0--0----0--0--|--0--0--0----0--0-0-0--|-0--0----0--0----0--0--|-0--0--0---0--0-0-0-|
|------------------------|-----------------------|-----------------------|--------------------|

|---------------------5--|----------5--------------|----------------------|-------------------|
|-----7-------5----8b-5--|----8--x--5----7--5-5----|-----7----7--5--------|-------------------|
|-----7-------5----------|-------7-------7--5h6----|-----7----7--5--------|-------------------|
|------------------------|-------------------------|----------------------|--7----------------|
|--0--0----0--0----0--0--|----0--0--0----0--0-0-0--|--0--0----0--0--------|--7----------------|
|------------------------|-------------------------|----------------------|-------------------|
Fly On The Wall.tab

Fly On The Wall


AC/DC

Intro: fly on the wall (spoken)


E|---------------------|-------------------|------------------|
B|---------------------|-------------------|------------------|
G|--------------2------|--2----------------|------------------|
D|--------------2------|--2----------------|------------------|
A|--------------0--3-2-|--0----------------|------------------|
E|---------------------|-------------------|------------------|

|------------3--3----2--|--2----3--3----------|------------3--3----2--|
|----2--2----3--3----3--|--3----3--3----------|----2--2----3--3----3--|
|----2--2----0--0----2--|--2----0--0----------|----2--2----0--0----2--|
|----2--2----0--0----0--|--0----0--0----------|----2--2----0--0----0--|
|----0--0---------------|---------------------|----0--0----2--2-------|
|------------3--3-------|-------3--3----------|------------3--3-------|

|--2----3--3--------------|------------3--3----2--|--2----3--3----------|
|--3----3--3--------------|----2--2----3--3----3--|--3----3--3----------|
|--2----0--0----2------2--|----2--2----0--0----2--|--2----0--0----------|
|--0----0--0----2------2--|----2--2----0--0----0--|--0----0--0----------|
|-------2--2----0--3-2-0--|----0--0---------------|---------------------|
|-------3--3--------------|------------3--3-------|-------3--3----------|

|------------3--3----2--|--2----3--3--------------|------------3--3----2--|
|----2--2----3--3----3--|--3----3--3--------------|----2--2----3--3----3--|
|----2--2----0--0----2--|--2----0--0----2------2--|----2--2----0--0----2--|
|----2--2----0--0----0--|--0----0--0----2------2--|----2--2----0--0----0--|
|----0--0---------------|---------------0--3-2-0--|----0--0---------------|
|------------3--3-------|-------3--3--------------|------------3--3-------|

|--2----3--3--------------|------------3--3----2--|--2----3--3--------------|
|--3----3--3--------------|----2--2----3--3----3--|--3----3--3--------------|
|--2----0--0----2------2--|----2--2----0--0----2--|--2----0--0----2------2--|
|--0----0--0----2------2--|----2--2----0--0----0--|--0----0--0----2------2--|
|---------------0--3-2-0--|----0--0---------------|---------------0--3-2-0--|
|-------3--3--------------|------------3--3-------|-------3--3--------------|

|------------3--3----2--|--2----3--3--------------|------------3--3----2--|
|----2--2----3--3----3--|--3----3--3--------------|----2--2----3--3----3--|
|----2--2----0--0----2--|--2----0--0----2------2--|----2--2----0--0----2--|
|----2--2----0--0----0--|--0----0--0----2------2--|----2--2----0--0----0--|
|----0--0---------------|---------------0--3-2-0--|----0--0---------------|
|------------3--3-------|-------3--3--------------|------------3--3-------|

you can dance...


|--2----3--3--------------|-------------------|------------------|
|--3----3--3--------------|------2------------|------------------|
|--2----0--0----2------2--|------2------------|------------------|
|--0----0--0----2------2--|------2------------|------------------|
|---------------0--3-2-0--|------0------------|------------------|
|-------3--3--------------|-------------------|------------------|
rock'n'roll music... makin' love...
|------3------------|------------------|-------------------|------------------|
|------3------------|------------------|------2------------|------------------|
|------0------------|------------------|------2------------|------------------|
|------0------------|------------------|------2------------|------------------|
|-------------------|------------------|------0------------|------------------|
|------3------------|------------------|-------------------|------------------|

lookin' for dollars... it's a game


|------3------------|------------------|------------3--3----2--|
|------3------------|------------------|----2--2----3--3----3--|
|------0------------|------------------|----2--2----0--0----2--|
|------0------------|------------------|----2--2----0--0----0--|
|-------------------|------------------|----0--0---------------|
|------3------------|------------------|------------3--3-------|

too toughto tame ends up the same


|--2----3--3----------|------------3--3----2--|--2----3--3----------|
|--3----3--3----------|----2--2----3--3----3--|--3----3--3----------|
|--2----0--0----------|----2--2----0--0----2--|--2----0--0----------|
|--0----0--0----------|----2--2----0--0----0--|--0----0--0----------|
|---------------------|----0--0---------------|---------------------|
|-------3--3----------|------------3--3-------|-------3--3----------|

sweatin' out the rain


|------------3--3----2--|--2----3--3----------|------------3--3----2--|
|----2--2----3--3----3--|--3----3--3----------|----2--2----3--3----3--|
|----2--2----0--0----2--|--2----0--0----------|----2--2----0--0----2--|
|----2--2----0--0----0--|--0----0--0----------|----2--2----0--0----0--|
|----0--0---------------|---------------------|----0--0---------------|
|------------3--3-------|-------3--3----------|------------3--3-------|

I was trapped like a


|--2----3--3----------|------------------|---------------3--2--|
|--3----3--3----------|------------------|------2--------3--3--|
|--2----0--0----------|------------------|------2--------0--2--|
|--0----0--0----------|------------------|------2--------0--0--|
|---------------------|------------------|------0--------------|
|-------3--3----------|------------------|---------------3-----|

fly on the wall I was caged like a zoo a-ni-mal no escape


|--3--3--2--3----------|---------------3--2--|--3--3--2--3----2----2--|
|--3--3--3--3----------|------2--------3--3--|--3--3--3--3----3----3--|
|--0--0--2--0----------|------2--------0--2--|--0--0--2--0----2----2--|
|--0--0--0--0----------|------2--------0--0--|--0--0--0--0----0----0--|
|----------------------|------0--------------|------------------------|
|--3--3-----3----------|---------------3-----|--3--3-----3------------|

from the fate that you make you're a snake I've had
|----------------3--2--|--3--3--2--3----------|---------------3--2--|
|----2--2--------3--3--|--3--3--3--3----------|------2--------3--3--|
|----2--2--------0--2--|--0--0--2--0----------|------2--------0--2--|
|----2--2--------0--0--|--0--0--0--0----------|------2--------0--0--|
|----0--0--------------|----------------------|------0--------------|
|----------------3-----|--3--3-----3----------|---------------3-----|
all I can take watch out
|--3--3--2--3----2----2--|------------3--3----2--|--2----3--3----------|
|--3--3--3--3----3----3--|----2--2----3--3----3--|--3----3--3----------|
|--0--0--2--0----2----2--|----2--2----0--0----2--|--2----0--0----------|
|--0--0--0--0----0----0--|----2--2----0--0----0--|--0----0--0----------|
|------------------------|----0--0---------------|---------------------|
|--3--3-----3------------|------------3--3-------|-------3--3----------|

there's a fly on the wall 2nd verse:


|------------------|----------|-------------------||
|------------------|----------|------2------------||
|------------------|----------|------2------------||
|------------------|----------|------2------------||
|------------------|----------|------0------------||
|------------------|----------|-------------------||
You Shook Me All Night Long (Into).tab

You Shook Me All Night Long (Into)


AC/DC

Intro 2x :
G N.C. D G D 2nd time omit this
e-3~~~~--x-x---5--p3~~--3-/2--2~~~-|---------------------|
b-3~~~~--x-x---3---3~~--3-----3~~~-|---------------------|
g-0~~~~--------0---0~~--0-----2~~~-|--------------2------|
d----------------------------------|-3p0~~~-3~~/4---4--0-|
a----------------------------------|---------------------|
E----------------------------------|---------------------|

Verse :
G C D
e------------------------------------------------|-------
b------------------------------------------------|-------
g-------5-5~-----5------7~~~-----------5-----7---|-------
d--5~~--5-5~--5--5--5---7~~~------5-5--5--5--7---|-------
a--5~~--3-3~--5--3--5---5~~~------5-5--3--5--5---|-------
E--3~~--------3-----3-------------3-3-----3------|-------

Chorus
G Em N.C.
e-3-3-----------------------------------------------------
b-x-x-----------------------------------------------------
g-0-0-----------0--------------0------0-------------------
d-0-0---------2-------------2------0----------------------
a-2-2---0-2-3-------------2-----0--------0--2--3~~~~-2--0~
E-3-3-----------------------------------------------------
You You shook me all night long
Back In Black 2.tab

Back In Black
AC/DC

Intro + Verse
E|---------2-2-2----------|------------3-0-------------|
B|---------3-3-3------2-2-|--2-------------3-0---------|
G|--1------2-2-2------2-2-|--2-----------------2b4r2-0-|
D|--2------0-0-0------2-2-|--2-------------------------|
A|--2-----------------0-0-|--0-------------------------|
E|--0---------------------|----------------------------|
|---------2-2-2----------|---------------------------|
|---------3-3-3------2-2-|--2------------------------|
|--1------2-2-2------2-2-|--2------------------------|
|--2------0-0-0------2-2-|--2------------------------|
|--2-----------------0-0-|--0------------------------|
|--0---------------------|-------7-4--7-5--7-6--7-7\-|
Chorus Part I'm back...
|-----------------------|-----------------------|----3---2--------------|----3---2-------------|
|-----------------------|-----------------------|----3---3--------------|----3---3-------------|
|----2-------4---2---4--|----2-------4---2---4--|----0---2---2---0---2--|----0---2---2---0--2--|
|----2---2---4---2---4--|----2---2---4---2---4--|----0---0---2---0---2--|----0---0---2---0--2--|
|----0---2---2---0---2--|----0---2---2---0---2--|----2-------0---2---0--|----2-------0---2--0--|
|--------0--------------|--------0--------------|----3-----------3------|----3-----------3-----|

back in black...
|-----------------------|-----------------------|--3---3---3---3-3--3----|--2---2---2----------|
|-----------------------|-----------------------|--3---3---3---3-3--3----|--3---3---3----------|
|----2-------4---2---4--|----2-------4---2---4--|--4---4---4---4-4--4----|--2---2---2----------|
|----2---2---4---2---4--|----2---2---4---2---4--|--5---5---5---5-5--5----|--0---0---0----------|
|----0---2---2---0---2--|----0---2---2---0---2--|--5---5---5---5-5--5----|---------------------|
|--------0--------------|--------0--------------|--3---3---3---3-3--3----|---------------------|

after 2nd Chorus


|------------------------------|------------------------------|------------------------------|
|------------------------------|------------------------------|------------------------------|
|------------------------------|------------------------------|------------------------------|
|------------------------------|------------------------------|----5-4-2-4----2----2----2----|
|----5-4-2-4----2----2----2----|----5-4-2-4----2----2----2----|--0---------3----5----6----7--|
|--0---------3----5----6----7--|--0---------3----5----6----7--|------------------------------|

|------------------------------|------------------------------|------------------------------|
|------------------------------|------------------------------|------------------------------|
|------------------------------|------------------------------|------------------------------|
|----5-4-2-4----2----2----2----|------------------------------|------------------------------|
|--0---------3----5----6----7--|----5-4-2-4----2----2----2----|----5-4-2-4----2----2----2----|
|------------------------------|--0---------3----5----6----7--|--0---------3----5----6----7--|
Big Gun.tab

Big Gun
AC/DC

Intro:
E|----------3b-----------|---------------------|----------3b----------|
B|-----------------5--3--|----5----5------3\---|-----------------5----|
G|-----------------------|---------------------|----------------------|
D|--2--2-----------------|---------------------|--2--2----------------|
A|--2--2-----------------|---------------------|--2--2----------------|
E|--0--0-----------------|---------------------|--0--0----------------|

|----------------------|----------3b-----------|---------------------|
|--5----3\-------------|-----------------5--3--|----5----5------3\---|
|----------------------|-----------------------|---------------------|
|----------------------|--2--2-----------------|---------------------|
|--------------5-------|--2--2-----------------|---------------------|
|-----------------5----|--0--0-----------------|---------------------|
verse theme:
|----------3b----------|----------------------|------------------------|
|-----------------5----|--5----3\-------------|------------------------|
|----------------------|----------------------|------------------------|
|--2--2----------------|----------------------|------------------------|
|--2--2----------------|--------------5-------|-----2--5-------4-------|
|--0--0----------------|-----------------5----|--0----------5-------3--|
chord change up:
|------------------------|------------------------|------------------------|
|------------------------|------------------------|------------------------|
|------------------------|------------------------|------------------------|
|------------------------|------------------------|------------------------|
|--2----0--4-------------|-----2--5-------4-------|--2----0--4-------------|
|---------------3--5--3--|--0----------5-------3--|---------------3--5--3--|

|------------------------|------------------------|------------------------|
|------------------------|------------------------|------------------------|
|------------------------|------------------------|------------------------|
|-----2--5-------4-------|--2----0--4-------------|-----2--5-------4-------|
|--0----------5-------3--|---------------3--5--3--|--0----------5-------3--|
|------------------------|------------------------|------------------------|
chord change down:
|------------------------|------------------------|------------------------|
|------------------------|------------------------|------------------------|
|------------------------|------------------------|------------------------|
|--2----0--4-------------|------------------------|------------------------|
|---------------3--5--3--|-----2--5-------4-------|--2----0--4-------------|
|------------------------|--0----------5-------3--|---------------3--5--3--|

|------------------------|------------------------|-----------------------|
|------------------------|------------------------|-----------------------|
|------------------------|------------------------|--4----4--2----2--4----|
|------------------------|------------------------|--4----4--2----2--4----|
|-----2--5-------4-------|--2----0--4-------------|--2----2--2----2--2----|
|--0----------5-------3--|---------------3--5--3--|-----------------------|
|-----------------------|---------------------|---------------------|
|-----------------------|----------------3----|---------------------|
|----2----2--2--4--4----|--2------0------2----|----2------2----2----|
|----2----2--2--4--4----|--2------0------0----|----2------2----2----|
|----2----2--2--2--2----|--0------------------|----0------0----0----|
|-----------------------|---------3-----------|---------------------|

chorus:
|----------3b-----------|---------------------|----------3b----------|
|-----------------5--3--|----5----5------3\---|-----------------5----|
|-----------------------|---------------------|----------------------|
|--2--2-----------------|---------------------|--2--2----------------|
|--2--2-----------------|---------------------|--2--2----------------|
|--0--0-----------------|---------------------|--0--0----------------|

|----------------------|----------3b-----------|---------------------|
|--5----3\-------------|-----------------5--3--|----5----5------3\---|
|----------------------|-----------------------|---------------------|
|----------------------|--2--2-----------------|---------------------|
|--------------5-------|--2--2-----------------|---------------------|
|-----------------5----|--0--0-----------------|---------------------|
verse:
|-----------------------|----------------------|------------------------|
|-----------------------|----------------------|------------------------|
|-----------------------|----------------------|------------------------|
|----5--2---------------|----------------------|------------------------|
|------------5----------|----------------------|-----2--5-------4-------|
|-----------------5--3--|--5--3--0--0----------|--0----------5-------3--|

|------------------------|
|------------------------|
|------------------------|
|------------------------|
|--2----0--4-------------|
|---------------3--5--3--|
Can't Stop Rock'n'Roll.tab

Can't Stop Rock'n'Roll


AC/DC

Intro:
E|----------------------|--------------------|
B|-------3----3----1----|--------------------|
G|--2----0----2----0----|--2--5--------------|
D|--2----0----0----2----|--2--5--------------|
A|--0--------------3----|--0--3--------------|
E|-------3--------------|--------------------|

|---------------------------|---------------------------|
|---------------------------|---------------------------|
|---------------------------|---------------------------|
|--7--7--7--7-7--7-7--7--7--|--7--7--7--7-7--7-7--7--7--|
|--0--0--0--0-0--0-0--0--0--|--0--0--0--0-0--0-0--0--0--|
|---------------------------|---------------------------|

Theme (4x):
|---------------------------|----------------------------|
|---------------------------|----------------------------|
|---------------------------|----------------------------|
|---------------------------|--9-8-7--7--7-7--7-7--7--7--|
|--7--7--7---7-7-5-5--5--5--|--7-6-5--5--5-5--5-5--5--5--|
|--5--5--5---5-5-3-3--3--3--|----------------------------|

Verse: Don't you give... better


run...
|-----------------------|--------------------|-----------------------|--------------------|
|-----------------------|--------------------|-----------------------|--------------------|
|----2--------7--5------|--2--5--------------|----2--------7--5------|--2--5--------------|
|----2--5---5-7--5------|--2--5--------------|----2--5---5-7--5------|--2--5--------------|
|----0--5---5-5--3------|--0--3--------------|----0--5---5-5--3------|--0--3--------------|
|-------3---3-----------|--------------------|-------3---3-----------|--------------------|

just like a... so don't


give...
|-----------------------|--------------------|-----------------------|--------------------|
|-----------------------|--------------------|-----------------------|--------------------|
|----2--------7--5------|--2--5--------------|----2--------7--5------|--2--5--------------|
|----2--5---5-7--5------|--2--5--------------|----2--5---5-7--5------|--2--5--------------|
|----0--5---5-5--3------|--0--3--------------|----0--5---5-5--3------|--0--3--------------|
|-------3---3-----------|--------------------|-------3---3-----------|--------------------|

don't you give... ...give me no lies


you
|--------------------|--------------------|----------------------|--------------------------|
|--------------------|--------------------|----------------------|--------------------------|
|--------------------|--2--2--------------|----------------------|--7----7--7-7--7-7--7-----|
|--3--3--------------|--2--2--------------|--3--3------5--5------|--7----7--7-7--7-7--7--7--|
|--3--3--------------|--0--0--------------|--3--3------5--5------|--5----5--5-5--5-5--5--5--|
|--1--1--------------|--------------------|--1--1------3--3------|--------------------------|
Chorus:
can't stop rock 'n' roll you
|---------------------------|----------------------------|
|---------------------------|----------------------------|
|---------------------------|----------------------------|
|---------------------------|--9-8-7--7--7-7--7-7--7--7--|
|--7--7--7---7-7-5-5--5--5--|--7-6-5--5--5-5--5-5--5--5--|
|--5--5--5---5-5-3-3--3--3--|----------------------------|

can't stop rock 'n' roll to verse:


|---------------------------|----------------------------|
|---------------------------|----------------------------|
|---------------------------|----------------------------|
|---------------------------|--9-8-7--7--7-7--7-7--7--7--|
|--7--7--7---7-7-5-5--5--5--|--7-6-5--5--5-5--5-5--5--5--|
|--5--5--5---5-5-3-3--3--3--|----------------------------|

after 2nd chorus:

|-----------------------------|----------------------------|
|-----------------------------|----------------------------|
|-----------------------------|----------------------------|
|--2--2--2--2-2-2-5-5--5--5-5-|--5-7-7--7--7-7--7-7--7--7--|
|--0--0--0--0-0-0-3-3--3--3-3-|--3-5-5--5--5-5--5-5--5--5--|
|-----------------------------|----------------------------|

|-----------------------------|----------------------------|
|-----------------------------|----------------------------|
|-----------------------------|----------------------------|
|--2--2--2--2-2-2-5-5--5--5-5-|--5-7-7--7--7-7--7-7--7--7--|
|--0--0--0--0-0-0-3-3--3--3-3-|--3-5-5--5--5-5--5-5--5--5--|
|-----------------------------|----------------------------|

|-----------------------------|----------------------------|
|-----------------------------|----------------------------|
|-----------------------------|----------------------------|
|--2--2--2--2-2-2-5-5--5--5-5-|--5-7-7--7--7-7--7-7--7--7--|
|--0--0--0--0-0-0-3-3--3--3-3-|--3-5-5--5--5-5--5-5--5--5--|
|-----------------------------|----------------------------|

riffs on solo:
|-----------------------|--------------------|----------------------|--------------------|
|-----------------------|--------------------|----------------------|--------------------|
|----2--------7--5------|--2--5--------------|--2-------------------|--2--5--------------|
|----2--5---5-7--5------|--2--5--------------|--0--3------3--5------|--2--5--------------|
|----0--5---5-5--3------|--0--3--------------|--0--3------3--5------|--0--3--------------|
|-------3---3-----------|--------------------|-----1------1--3------|--------------------|

|----------------------|--------------------|----------------------|----------------------|
|----------------------|--------------------|----------------------|----------------------|
|--2-------------------|--2--5--------------|--2-------------------|--2--5------2--5------|
|--0--3------3--5------|--2--5--------------|--0--3------3--5------|--2--5------2--5------|
|--0--3------3--5------|--0--3--------------|--0--3------3--5------|--0--3------0--3------|
|-----1------1--3------|--------------------|-----1------1--3------|----------------------|
you
|----------------------|--------------------------|---------------------------|
|----------------------|--------------------------|---------------------------|
|--2-------------------|--7----7--7-7--7-7--7--7--|--7--7--7--7-7--7-7--7-----|
|--0--3------3--5------|--7----7--7-7--7-7--7--7--|--7--7--7--7-7--7-7--7--7--|
|--0--3------3--5------|--5----5--5-5--5-5--5--5--|--5--5--5--5-5--5-5--5--5--|
|-----1------1--3------|--------------------------|---------------------------|

can't stop...(chorus)
|---------------------------|
|---------------------------|
|---------------------------|
|--2--2--2---2-2------------|
|--0--0--0---0-0-5-5--5--5--|
|----------------3-3--3--3--|
Give It Up.tab

Give It Up
AC/DC

Intro:
E|------------------------|------------------|------------------------|------------------|
B|------------------------|------------------|------------------------|------------------|
G|--2--2--0----2--2--0----|------------------|--2--2--0----2--2--0----|------------------|
D|--2--2--0----2--2--0----|------------------|--2--2--0----2--2--0----|------------------|
A|--0--0--0----0--0--0----|------------------|--0--0--0----0--0--0----|------------------|
E|------------------------|------------------|------------------------|------------------|

Angus riff on verse:


|------------------------|------------------------|
|------------------------|------------------------|
|--2--2--0----2--2--0----|-----------7----7--7----|
|--2--2--0----2--2--0----|--0--7--7--7----7--7----|
|--0--0--0----0--0--0----|--0--5--5--5----5--5----|
|------------------------|------------------------|

Malcolm riff on verse:


|------------------------|-------------------------|
|------------------------|-------------------------|
|--2--2--0----2--2--0----|-----------7----0--2--0--|
|--2--2--0----2--2--0----|--0--7--7--7----0--2--0--|
|--0--0--0----0--0--0----|--0--5--5--5-------------|
|------------------------|-------------------------|

Bridge to chorus:
do I make myself clear
|------------------------|----------------------|
|------------------------|----------------------|
|--2--2--0----2--2--0----|-----2--2--2----------|
|--2--2--0----2--2--0----|--0--2--2--2----------|
|--0--0--0----0--0--0----|--0--0--0--0----------|
|------------------------|----------------------|

I'm ready to rock...


|--3--3--3---------3----|-----------3---------|
|--3--3--3--3------3----|----3------3--3------|
|--0--0--0--2------0----|----2------0--2------|
|--0--0--0--0------0----|----0------0--0------|
|-----------------------|---------------------|
|--3--3--3---------3----|-----------3---------|

ready to rock...
|-----------------------|---------------------|
|-----------------------|---------------------|
|--2--2--2--1------2----|----1------2--1------|
|--2--2--2--2------2----|----2------2--2------|
|--0--0--0--2------0----|----2------0--2------|
|-----------0-----------|----0---------0------|
Chorus:
Give it up...
|------------------------|-------------------------|
|------------------------|-------------------------|
|--2--2--0----2--2--0----|-----7--7--7----0--2--0--|
|--2--2--0----2--2--0----|--0--7--7--7----0--2--0--|
|--0--0--0----0--0--0----|--0--5--5--5----0--0--0--|
|------------------------|-------------------------|

whip it...
|------------------------|-------------------------|
|------------------------|-------------------------|
|--2--2--0----2--2--0----|-----7--7--7----0--2--0--|
|--2--2--0----2--2--0----|--0--7--7--7----0--2--0--|
|--0--0--0----0--0--0----|--0--5--5--5----0--0--0--|
|------------------------|-------------------------|

stick it... give it up


|------------------------|-------------------------|--------------------------|
|------------------------|----------------3--------|-----------------3--------|
|--2--2--0----2--2--0----|-----7--7--7----2--2-----|-----------------2--2-----|
|--2--2--0----2--2--0----|--0--7--7--7----0--2-----|-----------------0--2-----|
|--0--0--0----0--0--0----|--0--5--5--5-------0-----|--2-----------------0-----|
|------------------------|----------------------3--|--0--0--0--0--0--------3--|

give it up give it up give it up


|--------------------------|--------------------------|-------------------|
|-----------------3--------|-----------------3--------|-------------------|
|-----------------2--2-----|-----------------2--2-----|-------------------|
|-----------------0--2-----|-----------------0--2-----|--2----------------|
|--2-----------------0-----|--2-----------------0-----|--2----------------|
|--0--0--0--0--0--------3--|--0--0--0--0--0--------3--|--0----------------|

|------------------------|-------------------------|------------------------|
|------------------------|-------------------------|------------------------|
|--2--2--0----2--2--0----|-----7--7--7----0--2--0--|--2--2--0----2--2--0----|
|--2--2--0----2--2--0----|--0--7--7--7----0--2--0--|--2--2--0----2--2--0----|
|--0--0--0----0--0--0----|--0--5--5--5----0--0--0--|--0--0--0----0--0--0----|
|------------------------|-------------------------|------------------------|

2nd verse:
|-------------------------|------------------------|
|-------------------------|------------------------|
|-----7--7--7----0--2--0--|--2--2--0----2--2--0----|
|--0--7--7--7----0--2--0--|--2--2--0----2--2--0----|
|--0--5--5--5----0--0--0--|--0--0--0----0--0--0----|
|-------------------------|------------------------|

after 2nd chorus to solo:


give it up give it up I' going crazy...
|--------------------------|------------------------|-------------3-----3--|
|-----------------3--------|------------------------|--3----------3--3--3--|
|-----------------2--2-----|------------------------|--2----------0--2--0--|
|-----------------0--2-----|--2----2--2----2--2--2--|--0----------0--0--0--|
|--2-----------------0-----|--2----2--2----2--2--2--|----------------------|
|--0--0--0--0--0--------3--|--0----0--0----0--0--0--|----------------------|
take a... give it up
|-------------------|-------------3-----3--|-------------------|
|--3----------------|--3----------3--3--3--|--3----------------|
|--2----------------|--2----------0--2--0--|--2----------------|
|--0----------------|--0----------0--0--0--|--0----------------|
|-------------------|----------------------|-------------------|
|-------------------|----------------------|-------------------|

solo: give it up
|-----------------------|------------------------|-----------------------|
|-----------------------|--3----3----------------|-----------------------|
|--2----2------2--2--2--|--2----2--5-------------|--2----2------2--2--2--|
|--2----2------2--2--2--|--0----0--5----5--5--5--|--2----2------2--2--2--|
|--0----0------0--0--0--|--0----0--3----3--3--3--|--0----0------0--0--0--|
|-----------------------|------------------------|-----------------------|

send me...
|------------------------|-------------3-----3--|-------------------|
|--3----3----------------|--3----------3--3--3--|--3----------------|
|--2----2--5-------------|--2----------0--2--0--|--2----------------|
|--0----0--5----5--5--5--|--0----------0--0--0--|--0----------------|
|--0----0--3----3--3--3--|----------------------|-------------------|
|------------------------|----------------------|-------------------|

she'll give it up... give it up give it up


|-------------3-----3--|----------------------|--------------------------|
|--3----------3--3--3--|--3----------3--------|-----------------3--------|
|--2----------0--2--0--|--2----------2--2-----|-----------------2--2-----|
|--0----------0--0--0--|--0----------0--2-----|-----------------0--2-----|
|----------------------|----------------0-----|--2--2--2--2--2-----0-----|
|----------------------|-------------------3--|--0--0--0--0--0--------3--|

give it up give it up
|--------------------------|--------------------------|
|-----------------3--------|-----------------3--------|
|-----------------2--2-----|-----------------2--2-----|
|-----------------0--2-----|-----------------0--2-----|
|--2--2--2--2--2-----0-----|--2--2--2--2--2-----0-----|
|--0--0--0--0--0--------3--|--0--0--0--0--0--------3--|

Chorus:
Give it up...
|--------------------------|------------------------|
|--------------------------|------------------------|
|--------------------------|--2--2--0----2--2--0----|
|--------------------2--2--|--2--2--0----2--2--0----|
|--2--2--2--2--2--2--2--2--|--0--0--0----0--0--0----|
|--0--0--0--0--0--0--0--0--|------------------------|
Given The Dog A Bone.tab
AC/DC

Intro + Verse:
E|--------------------------|--------------------------|
B|--------------------------|--------------------------|
G|--2--2--2--2--2--2--2--2--|--2--2--2--2--2--2--2--2--|
D|--x--2--2--x--2--2--x--2--|--2--x--2--2--x--2--2--2--|
A|--3--0--0--5--0--0--3--0--|--0--5--0--0--3--0--0--x--|
E|--------------------------|-----------------------3--|

Pre Chorus (2x):


|-----------------------|-------------------------|
|-----------3-----------|-------------------------|
|-----------2-----------|-------------------------|
|-----------0--------2--|--x--2--2--x--2--x--2----|
|--3--2--0--0--------0--|--3--0--0--5--0--3--0----|
|-----------------------|-------------------------|

|-----------------------|--------------------------|
|-----------3-----------|--------------------------|
|-----------2-----------|--------------------------|
|-----------0-----------|--x--2--2--x--2--x--2-----|
|--3--2--0--0--------0--|--3--0--0--5--0--3--0-----|
|-----------------------|-----------------------0--|

Chorus:
|------------------------|------------------------|------------------------|
|------------------------|------------------------|------------------------|
|-----------2------------|------------------------|------------------------|
|-----------2------------|-----------2------------|-----------2------------|
|--x--2--2--0-------2----|--x--2--2--0-------2----|--x--2--2--0-------2----|
|--3--0--0-------3--0----|--3--0--0-------3--0----|--3--0--0-------3--0----|

|------------------------|------------------------|------------------------|
|------------------------|------------------------|------------------------|
|------------------------|------------------------|------------------------|
|-----------2------------|-----------2------------|-----------2------------|
|--x--2--2--0-------2----|--x--2--2--0-------2----|--x--2--2--0-------2----|
|--3--0--0-------3--0----|--3--0--0-------3--0----|--3--0--0-------3--0----|

|------------------------|------------------------||
|------------------------|------------------------||
|------------------------|------------------------||
|-----------2------------|-----------2------------||
|--x--2--2--0-------2----|--x--2--2--0-------2----||
|--3--0--0-------3--0----|--3--0--0-------3--0----||
Hells Bells 2.tab

Hells Bells
AC/DC

Intro (and Chorus)


E|-------------------------|------------------------|------------------------|
B|-------------------------|------------------------|------------------------|
G|-----9-----7----------5--|----------7-------------|----9-----7----------5--|
D|--------7-------7--------|----5----------7--------|-------7-------7--------|
A|--0----------------0-----|-------0----------0--0--|------------------0-----|
E|-------------------------|------------------------|------------------------|

|------------------------|------------------------|
|------------------------|------------------------|
|----9-----7----------5--|----------7----------2--|
|-------7-------7--------|----5-----7----5--5--2--|
|------------------0-----|-------0-------3--2--0--|
|------------------------|------------------------|

last part of intro


|------------------------|------------------------|
|------------------------|------------------------|
|----9-----7----------5--|----------7-------------|
|-------7-------7--------|----5----------7--------|
|------------------0-----|-------0----------0--0--|
|------------------------|------------------------|

|---------------------3--|----3--2---------------|
|---------------------3--|----3--3---------------|
|----9-----7----------0--|----0--2---------------|
|-------7-------7-----0--|----0--0----5--5--2----|
|------------------0--2--|----2--0----3--2--0----|
|---------------------3--|----3------------------|

Verse
|------------------------|---------------------|
|------------------------|---------------------|
|----9--7--9----7--5--7--|---------------------|
|----7--7--7----5--5--7--|-----------5----5----|
|------------------------|--------0--3----2----|
|------------------------|---------------------|

|-------------------------|---------------------|
|-------------------------|---------------------|
|-----9--7--9----7--5--7--|---------------------|
|-----7--7--7----5--5--7--|-----------5----5----|
|--0----------------------|--------0--3----2----|
|-------------------------|---------------------|

I won't take no prisoner...


|-------------------------|------------------3----|-------------------------|
|-----3--3--3----3--3--3--|----3--3----------3----|-----3--3--3----3--3--3--|
|-----2--0--2----2--0--2--|----2--2-----5----4----|-----2--0--2----2--0--2--|
|--0----------------------|----------2--5----5----|--0----------------------|
|-------------------------|----------0--3----5----|-------------------------|
|-------------------------|------------------3----|-------------------------|
|------------------3----|------------------------|-----------------------|
|----3--3----------3----|------------------------|-----------------------|
|----2--2-----5----4----|------------------------|-------------7---------|
|----------2--5----5----|----9--7--9----9--7--9--|----9--9--9--7----7----|
|----------0--3----5----|----7--7--7----7--7--7--|----7--7--7--5----7----|
|------------------3----|------------------------|------------------5----|

|------------------------|-------------3----3----|
|------------------------|-------------3----3----|
|------------------------|-------------4----4----|
|----9--7--9----9--7--9--|----9--9--9--5----5----|
|----7--7--7----7--7--7--|----7--7--7--5----5----|
|------------------------|-------------3----3----|
Have A Drink On Me.tab

Have A Drink On Me
AC/DC

Intro:
E|---------------------|------------------|-----------------------------|
B|------8--------------|------------------|------8----------------------|
G|--7/9----------------|------------------|--7/9----9-----7-------------|
D|---------------------|------------------|------------7-----10--7------|
A|---------------------|------------------|-------------------------10--|
E|---------------------|------------------|-----------------------------|

|------------------------|-----------------------------|------------------------|
|--5---------7-----------|------8----------------------|--5---------7-----------|
|--5-6-------7-----------|--7/9----9-----7-------------|--5-6-------7-----------|
|--5---------7-----------|------------7-----10--7------|--5---------7-----------|
|--0---0--0--0--------0--|-------------------------10--|--0---0--0--0--------0--|
|------------------------|-----------------------------|------------------------|

|-----------------------------|------------------------|
|------8----------------------|--5---------7-----------|
|--7/9----9-----7-------------|--5-6-------7-----------|
|------------7-----10--7------|--5---------7-----------|
|-------------------------10--|--0---0--0--0--------0--|
|-----------------------------|------------------------|

|-----------------------------|---------2----------|-----------------------|
|------8----------------------|--2------3----------|--5--------2-----------|
|--7-9----9-----7-------------|--2------2----------|--5--------2-----------|
|------------7-----10--7------|--2------0----------|--5--------2-----------|
|-------------------------10--|--0------0----------|--3--0--3--0--------0--|
|-----------------------------|--------------------|-----------------------|

Chorus:
|-------------------------|-----------------------------|
|---5---------7-----------|------8----------------------|
|*--5-6-------7-----------|--7/9----9-----7-------------|
|*--5---------7-----------|------------7-----10--7--10--|
|---0---0--0--0--------0--|-----------------------------|
|-------------------------|-----------------------------|

|------------------------|-----------------------|------------------------|
|--5---------7-----------|--5--------2-----------|--5---------7-----------|
|--5-6-------7-----------|--5--------2-----------|--5-6-------7-----------|
|--5---------7-----------|--5--------2-----------|--5---------7-----------|
|--0---0--0--0--------0--|--3--0--3--0--------0--|--0---0--0--0--------0--|
|------------------------|-----------------------|------------------------|

|-----------------------------|------------------------|----------------------|
|------8----------------------|--5---------7-----------|--5--------2----------|
|--7-9----9-----7-------------|--5-6-------7-----------|--5--------2----------|
|------------7-----10--7------|--5---------7-----------|--5--------2----------|
|-------------------------10--|--0---0--0--0--------0--|--3--0--3--0----------|
|-----------------------------|------------------------|----------------------|
Verse:
|-------------------------|--------------------------|-------------------------|
|-------------------------|--------------------------|-------------------------|
|-------------------------|--------------------------|-------------------------|
|--5----4--5--------------|-----5--5--4--5-----7-----|--5----4--5--------------|
|--0----0--0--0--0--0--0--|--0--0--0--0--0--0--0--0--|--0----0--0--0--0--0--0--|
|-------------------------|--------------------------|-------------------------|

|--------------------------|--------------------------|-------------------------|
|--------------------------|--------------------------|-------------------------|
|--------------------------|-----------------2-2-2----|-------------------------|
|-----5--5--4--5-----7-----|--5--5--4--5-----2-2-2----|----5--5--4--5-----7-----|
|--0--0--0--0--0--0--0--0--|--0--0--0--0--0--0-0-0----|----0--0--0--0--0--0--0--|
|--------------------------|--------------------------|-------------------------|

|-----------------3-3-3----|-------------------------|--------------------------|
|-----------------3-3-3----|-------------------------|-----------------3-3-3----|
|-----------------0-0-0----|-------------------------|-----------------2-2-2----|
|--5--5--4--5-----0-0-0----|----5--5--4--5-----7-----|--5--5--4--5-----0-0-0----|
|--0--0--0--0--0-----------|----0--0--0--0--0--0--0--|--0--0--0--0--0--0-0-0----|
|-----------------3-3-3----|-------------------------|--------------------------|

|-------------------------|--2------2------2----|--1-------3------------|
|-------------------------|--3------3------3----|--1-------3------------|
|-------------------------|--2------2------2----|--2-------4-----------*|
|----5--5--4--5-----7-----|--0------0------0----|--3-------5-----------*|
|----0--0--0--0--0--0--0--|---------------------|--3-------5--------0---|
|-------------------------|---------------------|--1----1--3------------|
High Voltage.tab

High Voltage
AC/DC

Intro:
E|--------------------|--------------------|-----------------------|--------------------|
B|--------------------|--------------------|-----------------------|--------------------|
G|----------------9-9-|--9--------------7--|-------2----2------9-9-|--9--------------7--|
D|----------------9-9-|--9--------------7--|----7--2----2------9-9-|--9--------------7--|
A|----------------7-7-|--7--------------5--|----4--0----0------7-7-|--7--------------5--|
E|--------------------|--------------------|-----------------------|--------------------|

|-----------------------|--------------------|-----------------------|--------------------|
|-----------------------|--------------------|-----------------------|--------------------|
|-------2----2------9-9-|--9--------------7--|-------2----2------9-9-|--9--------------7--|
|----7--2----2------9-9-|--9--------------7--|----7--2----2------9-9-|--9--------------7--|
|----4--0----0------7-7-|--7--------------5--|----4--0----0------7-7-|--7--------------5--|
|-----------------------|--------------------|-----------------------|--------------------|

|-----------------------|------------------------|-------------------------|-------------------|
|-----------------------|------------------------|-------------------------|-------------------|
|-------2----2------2-2-|-------2----2-----2--2--|----2--2-----2--x--2--2--|----2----2---2--2--|
|----7--2----2------2-2-|-------4----2-----4--2--|----2--4-----2-----4--2--|----4----2---4--2--|
|----4--0----0------0-0-|----0--0----0--x--0--0--|----0--0--x--0-----0--0--|-0--0----0-x-0--0--|
|-----------------------|------------------------|-------------------------|-------------------|

Verse: well you... (see 2nd guitar fill ins below)


|-------------------------||--------------------------|-----------------------|----------------|
|-------------------------||--------------------------|-----------------------|----------------|
|----2--2-----2--------9--||*----9--------9--------9--|---9--------9--------7-|-7-----7-----7--|
|----2--4-----2--------9--||*----9--------9--------9--|---9--------9--------7-|-7-----7-----7--|
|----0--0--x--0--x--0--7--||-----7--------7--------7--|---7--------7--------5-|-5-x-5-5-x-5-5--|
|-------------------------||-----0--x--0--0--x--0--0--|---0--x--0--0--x--0----|----------------|

2x-
|------------------------||----------------------|----------------------|----------------------|
|------------------------||----------------------|----------------------|----------------------|
|--7--------7--------9--*||--9--------9--------9-|--9--------9--------7-|-7--------7--------5--|
|--7--------7--------9--*||--9--------9--------9-|--9--------9--------7-|-7--------7--------5--|
|--5--x--5--5--x--5--7---||--7--------7--------7-|--7--------7--------5-|-5--x--5--5--x--5--3--|
|--------------------0---||--0--x--0--0--x--0--0-|--0--x--0--0--x--0----|----------------------|

|-------------------------|----------------------|-----------------------|---------------------|
|-------------------------|----------------------|-----------------------|---------------------|
|----5--------5--------2--|-----2----2-----2--2--|--2--2-----2--x--2--2--|----2----2-----2--2--|
|----5--------5--------2--|-----4----2-----4--2--|--2--4-----2-----4--2--|----4----2-----4--2--|
|----3--x--3--3--x--3--0--|--0--0----0--x--0--0--|--0--0--x--0-----0--0--|-0--0----0--x--0--0--|
|-------------------------|----------------------|-----------------------|---------------------|

High voltage...
|-------------------------|--------------------|--------------------|------------------------|
|-------------------------|--------------------|--------------------|------------------------|
|----2--2-----2--x--2--2--|--2--------------5--|--------7--------2--|-------2----2-----2--2--|
|----2--4-----2-----2--2--|--2--------------5--|--------7--------2--|-------4----2-----4--2--|
|----0--0--x--0-----0--0--|--0--------------3--|--------5--------0--|----0--0----0--x--0--0--|
|-------------------------|--------------------|--------------------|------------------------|
high voltage...
|-------------------------|--------------------|--------------------|------------------------|
|-------------------------|--------------------|--------------------|------------------------|
|----2--2-----2--x--2--2--|--2--------------5--|--------7--------2--|-------2----2-----2--2--|
|----2--4-----2-----2--2--|--2--------------5--|--------7--------2--|-------4----2-----4--2--|
|----0--0--x--0-----0--0--|--0--------------3--|--------5--------0--|----0--0----0--x--0--0--|
|-------------------------|--------------------|--------------------|------------------------|

high voltage.. high voltage...


|-------------------------|-----------------------|-------------------|----------------------|
|-------------------------|-----------------------|-------------------|----------------------|
|----2--2-----2-----2--5--|------5----5--5--5--7--|--7----7--7--7--5--|-----5----5--5--5--7--|
|----2--2-----2-----2--5--|------5----5--5--5--7--|--7----7--7--7--5--|-----5----5--5--5--7--|
|----0--0--x--0--x--0--3--|------3----3--3--3--5--|--5----5--5--5--3--|-----3----3--3--3--5--|
|-------------------------|-----------------------|-------------------|----------------------|

high voltage...
|-----------------------|--------------------3--|--------2-----------|-----------------------|
|-----------------------|--------------------3--|--------3-----------|-----------------------|
|------7----7--7--7--5--|------5----5--5--5--0--|--------2--------2--|------2----2-----2--2--|
|------7----7--7--7--5--|------5----5--5--5--0--|--------0--------2--|------4----2-----4--2--|
|------5----5--5--5--3--|------3----3--3--3-----|-----------------0--|---0--0----0--x--0--0--|
|-----------------------|--------------------3--|--------------------|-----------------------|

to verse:
|-------------------------|------------------------|-------------------------|
|-------------------------|------------------------|-------------------------|
|----2--2-----2--x--2--2--|-------2----2-----2--2--|----2--2-----2--------9--|
|----2--4-----2-----4--2--|-------4----2-----4--2--|----2--4-----2--------9--|
|----0--0--x--0-----0--0--|----0--0----0--x--0--0--|----0--0--x--0--x--0--7--|
|-------------------------|------------------------|-------------------------|

2nd guitar on verse:


|-------------------|-----5------5---------|-----5------5---------|-----5------5---------|
|-------------------|-----5------5---------|-----5------5---------|-----5------5---------|
|----------------5h-|--6----------------5--|--6----------------5--|--6----------------5--|
|-------------------|----------------------|----------------------|----------------------|
|-------------------|----------------------|----------------------|----------------------|
|-------------------|----------------------|----------------------|----------------------|

well you...
|-----5------5----------||-------12----12-------|------12---12--------|------10----10----------|
|-----5------5----------||-------12----12-------|------12---12--------|------10----10----------|
|--6----------------12--||*--13-------------12--|--13-------------10--|--11----------------10--|
|-----------------------||*---------------------|---------------------|------------------------|
|-----------------------||----------------------|---------------------|------------------------|
|-----------------------||----------------------|---------------------|------------------------|

2x
|------10------10-----------||------12------12----------|------12----12--------|------10--10--|
|------10------10-----------||------12------12----------|------12----12--------|------10--10--|
|--11------------------12--*||--13------------------12--|--13--------------10--|--11----------|
|--------------------------*||--------------------------|----------------------|--------------|
|---------------------------||--------------------------|----------------------|--------------|
|---------------------------||--------------------------|----------------------|--------------|

|----8----8-------------|-----5------5---------|-----5------5---------|-----5------5---------|
|----8----8----7--5-----|-----5------5---------|-----5------5---------|-----5------5---------|
|--------------------5--|--6----------------5--|--6----------------5--|--6----------------5--|
|-----------------------|----------------------|----------------------|----------------------|
|-----------------------|----------------------|----------------------|----------------------|
|-----------------------|----------------------|----------------------|----------------------|
high voltage...
|-----5------5---------|------------------|
|-----5------5---------|------------------|
|--6----------------5--|------------------|
|----------------------|------------------|
|----------------------|------------------|
|----------------------|------------------|
It's A Long Way To The Top.tab

It's A Long Way To The Top


AC/DC

Malcolm Riff:
|--------------------|-----------------------|-----------------------|
|--------------------|-----------------------|-----------------------|
|--------------------|-----------------------|-----------------------|
|--------------x--4--|----4-------4-------4--|----4-------4-------4--|
|--------------x--2--|----2----x--2----0--2--|----2----x--2----0--2--|
|--------------------|---------x-------------|---------x-------------|

Angus comes in:


|-----------------------|-------------------|------------------|
|-----------------------|-------------------|------------------|
|-----------------------|--4----------------|------------------|
|--------------2----4-4-|--4----------------|------------------|
|----------2-4-2----2-2-|--2----------------|------------------|
|-----------------------|-------------------|------------------|

|------------------|-----------------------|-------------------|
|------------------|-----------------------|-------------------|
|------------------|-----------------------|--4----------------|
|------------------|--------------2----4-4-|--4----------------|
|------------------|----------2-4-2----2-2-|--2----------------|
|------------------|-----------------------|-------------------|

|------------------|------------------|----------------------|
|------------------|------------------|----------------------|
|------------------|------------------|----------------------|
|------------------|------------------|--------------2----4--|
|------------------|------------------|----------2-4-2----2--|
|------------------|------------------|----------------------|

|-------------------|------------------|------------------|
|-------------------|------------------|------------------|
|--4----------------|------------------|------------------|
|--4----------------|------------------|------------------|
|--2----------------|------------------|------------------|
|-------------------|------------------|------------------|

riding on the highway...(let ring)


|----------------------|-------------------|------------------|
|----------------------|-------------------|------------------|
|----------------------|--4----------------|------------------|
|--------------2----4--|--4----------------|------------------|
|----------2-4-2----2--|--2----------------|------------------|
|----------------------|-------------------|------------------|
gettin' robbed gettin' stoned... (go on until chorus)
|------------------|----7------7--------|----7------7--------|
|------------------|----7------7--------|----7------7--------|
|------------------|--------------------|--------------------|
|------------------|--------------------|--------------------|
|------------------|--------------------|--------------------|
|------------------|--------------------|--------------------|

Chorus Angus:
Long way to the top...
|------------------5--|--------4------x-----|------------------|
|---------------x--5--|--------5------x-----|------------------|
|--4------------x--2--|--------4------x--4--|------------------|
|--4------------x--2--|--------6------x--4--|------------------|
|--2------------x--0--|------------------2--|------------------|
|---------------------|---------------------|------------------|

long way to the top...


|------------------|-----------------5--|--------4------------|
|------------------|-----------------5--|--------5------------|
|------------------|--4--------------2--|--------4---------4--|
|------------------|--4--------------2--|--------6--2------4--|
|------------------|--2--------------0--|-----------2------2--|
|------------------|--------------------|-----------4---------|

think it's easy...


|------------------|------------------|-------------------|--------------------|
|------------------|------------------|-------------------|--------------------|
|------------------|------------------|--4----------------|--------------x--9--|
|------------------|------------------|--4----------------|--------------x--9--|
|------------------|------------------|--2----------------|--------------x--7--|
|------------------|------------------|-------------------|-----------------7--|

try playin'... long way...


|------------------|------------------|--5--------------4--|--------------4-----|
|------------------|------------------|--5--------------5--|--------------5-----|
|------------------|------------------|--2--------------4--|--------------4--4--|
|------------------|------------------|--2--------------6--|--------------6--4--|
|------------------|------------------|--0-----------------|-----------------2--|
|------------------|------------------|--------------------|--------------------|

to verse:
|------------------|------------------|----7------7--------|
|------------------|------------------|----7------7--------|
|------------------|------------------|--------------------|
|------------------|------------------|--------------------|
|------------------|------------------|--------------------|
|------------------|------------------|--------------------|

Chorus Malcolm:
long way to the top...
|------------------5--|--------------------|-----------------------|
|---------------x--5--|--------------------|-----------------------|
|--4------------x--2--|-----------------4--|-----------------------|
|--4------------x--2--|--------2--------4--|----4-------4-------4--|
|--2------------x--0--|--------2--------2--|----2----x--2----0--2--|
|---------------------|--------4-----------|---------x-------------|
long way to the top...
|----------------------|------------------5--|----------------------|
|----------------------|------------------5--|----------------------|
|----------------------|--4---------------2--|-------------------4--|
|----4-------4----4----|--4---------------2--|-----------2----2--4--|
|----2----x--2----2----|--2------------2--0--|--------2--2----2--2--|
|---------x------------|---------------------|-----------4----4-----|

think it's easy


|-----------------------|-----------------------|-------------------|
|-----------------------|-----------------------|-------------------|
|-----------------------|-----------------------|--4----------------|
|----4-------4-------4--|----4-------4----2--2--|--4----------------|
|----2----x--2----0--2--|----2----x--2----2--2--|--2----------------|
|---------x-------------|---------x-------------|-------------------|

try playin'...
|--------------------|------------------|------------------|
|-----------------5--|------------------|------------------|
|--------------x--4--|------------------|------------------|
|--------------x--2--|------------------|------------------|
|--------------x--2--|------------------|------------------|
|--------------------|------------------|------------------|

long way... to verse:


|--5------------------|--------------------|------------------|
|--5------------------|--------------------|------------------|
|--2------------------|--------------x--4--|------------------|
|--2---------------2--|--------------x--4--|------------------|
|--0---------------2--|--------------x--2--|------------------|
|---------------2--4--|--------------------|------------------|

|--------------------|----------------------|----------------------|
|--------------------|----------------------|----------------------|
|-----------------4--|----4------4-------4--|----4------4-------4--|
|--------------2--4--|----4------4----2--4--|----4------4----2--4--|
|--------------0--2--|----2------2----0--2--|----2------2----0--2--|
|--------------------|----------------------|----------------------|
Live Wire.tab

Live Wire
AC DC

Intro: 4x
E|------------------|-------------------|-------------------|-------------------||
B|------------------|-------------------|-------------------|-------------------||
G|*-----------------|----------------2--|-------------------|----------------4-*||
D|*-----------------|----------------2--|----------------2--|----------------4-*||
A|------------------|----------------0--|----------------2--|----------------2--||
E|------------------|-------------------|----------------0--|-------------------||

2x
|------------------|--------------------|------------------|--------------------||
|------------------|--------------------|------------------|--------------------||
|*-----------------|-----------------4--|------------------|-----------------4-*||
|*-----------------|------------2----4--|------------------|------------2----4-*||
|------------------|------------2----2--|------------------|------------2----2--||
|------------------|------------0-------|------------------|------------0-------||

both guitars:
|------------------|---------------------|-------------------|---------------------|
|------------------|---------------------|-------------------|---------------------|
|------------------|--------2---------4--|--4----------------|--------2---------4--|
|------------------|--------2----2----4--|--4----------------|--------2----2----4--|
|------------------|--------0----2----2--|--2----------------|--------0----2----2--|
|------------------|-------------0-------|-------------------|-------------0-------|

|-------------------|---------------------|-------------------|---------------------|
|-------------------|---------------------|-------------------|---------------------|
|--4----------------|--------2---------4--|--4----------------|--------2---------4--|
|--4----------------|--------2----2----4--|--4----------------|--------2----2----4--|
|--2----------------|--------0----2----2--|--2----------------|--------0----2----2--|
|-------------------|-------------0-------|-------------------|-------------0-------|

well if you're lookin...


|-------------------|---------------------|-------------------|---------------------|
|-------------------|---------------------|-------------------|---------------------|
|--4----------------|--------2---------4--|--4----------------|--------2---------4--|
|--4----------------|--------2----2----4--|--4----------------|--------2----2----4--|
|--2----------------|--------0----2----2--|--2----------------|--------0----2----2--|
|-------------------|-------------0-------|-------------------|-------------0-------|

|-------------------|---------------------|-------------------|---------------------|
|-------------------|---------------------|-------------------|---------------------|
|--4----------------|--------2---------4--|--4----------------|--------2---------4--|
|--4----------------|--------2----2----4--|--4----------------|--------2----2----4--|
|--2----------------|--------0----2----2--|--2----------------|--------0----2----2--|
|-------------------|-------------0-------|-------------------|-------------0-------|
I'm as cool...
|-------------------|---------------------|---------------------|---------------------|
|-------------------|---------------------|---------------------|---------------------|
|--4----------------|--------2---------4--|--4---------------4--|--------2---------4--|
|--4----------------|--------2----2----4--|--4----------2----4--|--------2----2----4--|
|--2----------------|--------0----2----2--|--2----------2----2--|--------0----2----2--|
|-------------------|-------------0-------|-------------0-------|-------------0-------|

|---------------------|---------------------|---------------------|---------------------|
|---------------------|---------------------|---------------------|---------------------|
|--4---------------4--|--------2---------4--|--4---------------4--|--------2---------4--|
|--4----------2----4--|--------2----2----4--|--4----------2----4--|--------2----2----4--|
|--2----------2----2--|--------0----2----2--|--2----------2----2--|--------0----2----2--|
|-------------0-------|-------------0-------|-------------0-------|-------------0-------|

to chorus: live wire...


|---------------------|------------------------|-------------------|--------------------|
|---------------------|------------------------|--3----------------|--3----3------------|
|--4---------------4--|----4--4----4--4--4--4--|--0----------------|--0----0------------|
|--4----------2----4--|----4--4----4--4--4--4--|--0----------------|--0----0------------|
|--2----------2----2--|----2--2----2--2--2--2--|-------------------|--------------------|
|-------------0-------|------------------------|--3----------------|--3----3------------|

live wire... live wire...


|-------------------|--------------------|-------------------|--------------------|
|-------------------|--------------------|--3----------------|--3----3------------|
|--4----------------|--4----4------------|--0----------------|--0----0------------|
|--4----------------|--4----4------------|--0----------------|--0----0------------|
|--2----------------|--2----2------------|-------------------|--------------------|
|-------------------|--------------------|--3----------------|--3----3------------|

to verse:
|--------------------------|--------------------------|
|--------------------------|--------------------------|
|--------------------------|--------------------------|
|--4--4--4--4--4--4--4--4--|--4--4--4--4--4--4--4--4--|
|--4--4--4--4--4--4--4--4--|--4--4--4--4--4--4--4--4--|
|--2--2--2--2--2--2--2--2--|--2--2--2--2--2--2--2--2--|

after 2nd chorus:


|-------------------------|--------------------------|---------------------|-------------------|
|-------------------------|--------------------------|---------------------|-------------------|
|-------------------------|--------------------------|-------------7-------|-------------7-----|
|-4--4--4--4--4--4--4--4--|--4--4--4--4--4--4--4--9--|-7--9--7--9-------9--|-7--9--7--9-----9--|
|-4--4--4--4--4--4--4--4--|--4--4--4--4--4--4--4-----|---------------------|-------------------|
|-2--2--2--2--2--2--2--2--|--2--2--2--2--2--2--2-----|---------------------|-------------------|
You Shook Me All Night Long 2.tab

You Shook Me All Night Long


AC/DC

Intro:
1/4 up
|-3-----------5-3-3---3-2--------------------------
|-3-----------3-3---3-----3---3-------------3------
|-0-----------0---------------2--2^-2-------2------
|-0-0-0-0-0-0---------------0-0--3^-0---3/4---3-0--
|--------------------------------------------------
|--------------------------------------------------
-3--3-3-3-5--3-3---3-2-----2-|
-3--3-3-3-3--3---3-----3---3-|
-0--0-0-0-0----------------2-|
-0-----------------------0-0-|
-----------------------------|
-----------------------------|
Verse:
|---------------------------------|
|-0------1-1--0-1-0-3---0-0-3-0-3-|
|-0------0-0--0-0-0-2---0-0-2-0-2-|
|-0------2-2--0-2-0-0---0-0-0-0-0-|
|-X------3-3--X-3-X-----x-x---x---|
|-3-----------3---3-----3-3---3---|
All Screwed Up.tab

All Screwed Up
AC DC

Main riff:
E|---------------------------|
B|---------------------------|
G|--4-4-4-4-4-4-4-4-4--------|
D|--4-4-4-4-4-4-4-4-4--------|
A|--0-2-2-0-2-2-0-2-2--------|
E|---------------------------|

Verse:

You think you're kinda tough


|---------------------------|---------------------------|
|---------------------------|---------------------------|
|--4-4-4-4-4-4-4-4-4--------|--4-4-4-4-4-4-4-4-4--------|
|--4-4-4-4-4-4-4-4-4--------|--4-4-4-4-4-4-4-4-4--------|
|--0-2-2-0-2-2-0-2-2--------|--0-2-2-0-2-2-0-2-2--------|
|---------------------------|---------------------------|
you're walking kinda rough
|---------------------------|---------------------------|
|---------------------------|---------------------------|
|--4-4-4-4-4-4-4-4-4--------|--4-4-4-4-4-4-4-4-4--------|
|--4-4-4-4-4-4-4-4-4--------|--4-4-4-4-4-4-4-4-4--------|
|--0-2-2-0-2-2-0-2-2--------|--0-2-2-0-2-2-0-2-2--------|
|---------------------------|---------------------------|
when you want any more
|---------------------------|---------------------------|
|---------------------------|---------------------------|
|---------------------------|---------------------------|
|--4-4-4-4-4-4-4-4-4--------|--4-4-4-4-4-4-4-4-4--------|
|--4-4-4-4-4-4-4-4-4--------|--4-4-4-4-4-4-4-4-4--------|
|--0-2-2-0-2-2-0-2-2--------|--0-2-2-0-2-2-0-2-2--------|

you go fast wo' wo' things go


|---------------------------|---------------------------|
|---------------------------|---------------------------|
|--4-4-4-4-4-4-4-4-4--------|--4-4-4-4-4-4-4-4-4--------|
|--4-4-4-4-4-4-4-4-4--------|--4-4-4-4-4-4-4-4-4--------|
|--0-2-2-0-2-2-0-2-2--------|--0-2-2-0-2-2-0-2-2--------|
|---------------------------|---------------------------|
tough and you strut your stuff and I want
your
|-----------------------|-------------------|-----------------------|-------------------|
|----7----9----------8--|----7--------------|----7----9----------8--|----7--------------|
|----7----9----9--7--7--|----7--------------|----7----9----9--7--7--|----7--------------|
|--------------9--7-----|-------------------|--------------9--7-----|-------------------|
|-----------------------|-------------------|-----------------------|-------------------|
|-----------------------|-------------------|-----------------------|-------------------|
|-----------------------|-------------------|-----------------------|-------------------|
|-----------------------|-------------------|-----------------------|-------------------|
|-----------------------|-------------------|-----------------------|-------------------|
|-----------------------|-------------------|-----------------------|-------------------|
|----4----2----2--4--5--|----5--------------|----4----2----2--4--5--|----5--------------|
|----2----0----0--2--3--|----2--------------|----2----0----0--2--3--|----2--------------|
thing then you're out of luck all
screwed
|-----------------------|-------------------|
|----7----9----------8--|----7--------------|
|----7----9----9--7--7--|----7--------------|
|--------------9--7-----|-------------------|
|-----------------------|-------------------|
|-----------------------|-------------------|

|-----------------------|-------------------|-------------------|------------------------|
|-----------------------|-------------------|-------------------|------------------------|
|-----------------------|-------------------|-------------------|------------------------|
|-----------------------|-------------------|--2----------------|--2----2--2----2--2--2--|
|----4----2----2--4--5--|----5--------------|--2----------------|--2----2--2----2--2--2--|
|----2----0----0--2--3--|----2--------------|--0----------------|--0----0--0----0--0--0--|

Chorus:
up all screwed
|---------------------------|---------------------------|
|---------------------------|---------------------------|
|--4-4-4-4-4-4-4-4-4--------|--4-4-4-4-4-4-4-4-4--------|
|--4-4-4-4-4-4-4-4-4--------|--4-4-4-4-4-4-4-4-4--------|
|--0-2-2-0-2-2-0-2-2--------|--0-2-2-0-2-2-0-2-2--------|
|---------------------------|---------------------------|

up all screwed
|-----------------------------|---(0)---------------|
|-----------------------------|---(0)---------------|
|--4-4-4-4-4-4-4-4-4----------|---(1)---7----7------|
|--4-4-4-4-4-4-4-4-4----4--2--|---------7----7------|
|--0-2-2-0-2-2-0-2-2----2--2--|---------5----4------|
|--------------------------0--|---------------------|
up all screwed
|---------------------------|---------------------------|
|---------------------------|---------------------------|
|--4-4-4-4-4-4-4-4-4--------|--4-4-4-4-4-4-4-4-4--------|
|--4-4-4-4-4-4-2-4-4--------|--4-4-4-4-4-4-4-4-4--------|
|--0-2-2-0-2-2-0-2-2--------|--0-2-2-0-2-2-0-2-2--------|
|---------------------------|---------------------------|
up 2nd verse:
|-----------------------------|--------------------|---------------------------|
|-----------------------------|--------------------|---------------------------|
|--4-4-4-4-4-4-4-4-4----------|--------7----7------|--4-4-4-4-4-4-4-4-4--------|
|--4-4-4-4-4-4-4-4-4----4--2--|--------7----7------|--4-4-4-4-4-4-4-4-4--------|
|--0-2-2-0-2-2-0-2-2----2--2--|--------5----4------|--0-2-2-0-2-2-0-2-2--------|
|--------------------------0--|--------------------|---------------------------|

end of 2nd chorus:


|---------------------------|----------------------|----------|
|---------------------------|----------------------|----------|
|--4-4-4-4-4-4-4-4-4--------|----------------------|----------|
|--4-4-4-4-4-4-4-4-4--------|----------------------|----------|
|--0-2-2-0-2-2-0-2-2--------|----2--4--5----7------|----------|
|---------------------------|----0--2--3----5------|----------|
solo part starts with these chords:
(play single string first, then two strings, then full chords)
B D A E
|----------------------------------|----------------------------------|
|----------------------------------|----------------------------------|
|--4-4-4-4-4-4-4-4-7-7-7-7-2-2-2-2-|----------------------------------|
|--4-4-4-4-4-4-4-4-7-7-7-7-2-2-2-2-|--2-2-2-2-2-2-2-2-2-2-2-2-2-2-2-2-|
|--2-2-2-2-2-2-2-2-5-5-5-5-0-0-0-0-|--2-2-2-2-2-2-2-2-2-2-2-2-2-2-2-2-|
|----------------------------------|--0-0-0-0-0-0-0-0-0-0-0-0-0-0-0-0-|

here's the same pattern with additional chords at the end:

B D A E D A
|----------------------------------|----------------------------|
|----------------------------------|------------------3----2----|
|--4-4-4-4-4-4-4-4-7-7-7-7-2-2-2-2-|------------------2----2----|
|--4-4-4-4-4-4-4-4-7-7-7-7-2-2-2-2-|--2-2-2-2-2-2-2-2-0----2----|
|--2-2-2-2-2-2-2-2-5-5-5-5-0-0-0-0-|--2-2-2-2-2-2-2-2------0----|
|----------------------------------|--0-0-0-0-0-0-0-0-----------|
Come And Get It.tab

Come And Get It


AC DC

Intro:
E|---------------------------|---------------------------|
B|---------------------------|---------------------------|
G|--5--2-----2~---0----------|--5--2-----2~---0----------|
D|--5--2-------------0-1-2---|--5--2-------------0-1-2---|
A|--3--0--0----------------0-|--3--0--0----------------0-|
E|---------------------------|---------------------------|
picking up...
|---------------------------|----------------------|------------------|
|---------------------------|----------------------|------------------|
|--5--2-----2~---0----------|--5--2-----2----------|------------------|
|--5--2-------------0-1-2---|--5--2-----2----------|------------------|
|--3--0--0----------------0-|--3--0--0--0----------|------------------|
|---------------------------|----------------------|------------------|

hell no distance...
|---------------------------|-------------------|---------------------------|
|---------------------------|-------------------|---------------------------|
|-----------2~---0----------|-------------------|-----------2~---0----------|
|--5--2-------------0-1-2---|-------------------|--5--2-------------0-1-2---|
|--3--0--0----------------3-|--0----------------|--3--0--0----------------3-|
|---------------------------|-------------------|---------------------------|
burning down... don't you...
|-------------------|---------------------------|-------------------|
|-------------------|---------------------------|-------------------|
|-------------------|-----------2~---0----------|-------------------|
|-------------------|--5--2-------------0-1-2---|-------------------|
|--0----------------|--3--0--0----------------3-|--0----------------|
|-------------------|---------------------------|-------------------|
these are...
|------------------------|-------------------|------------------------|
|------------------------|-------------------|------------------------|
|--5--5-----5---------5--|--5----------------|--5--5-----5---------5--|
|--7--7--5--7----5----7--|--7----------------|--7--7--5--7----5----7--|
|--5--5--5--5----5----5--|--5----------------|--5--5--5--5----5----5--|
|--------3-------3-------|-------------------|--------3-------3-------|
don't think... I've got my...
|-------------------|------------------------|-------------------|
|-------------------|------------------------|-------------------|
|--5----------------|--7--7-----7---------7--|--7----------------|
|--7----------------|--9--9--7--9----7----9--|--9----------------|
|--5----------------|--7--7--7--7----7----7--|--7----------------|
|-------------------|--------5-------5-------|-------------------|
upon my... ...want it come and get it
|------------------------|-------------------|--------------------------|
|--3--3--2--3----2-------|-------------------|--------------------------|
|--2--2--2--2----2-------|-------------------|----------2~---0----------|
|--0--0--2--0----2----2--|--2----------------|--5--2------------0-1-2---|
|--0--0--0--0----0----2--|--2----------------|--3--0------------------3-|
|---------------------0--|--0----------------|--------------------------|
(come and get it) want it come and get it (come and get it)
|-------------------|--------------------------|-------------------|
|-------------------|--------------------------|-------------------|
|-------------------|----------2~---0----------|-------------------|
|-------------------|--5--2------------0-1-2---|-------------------|
|--0----------------|--3--0------------------3-|--0----------------|
|-------------------|--------------------------|-------------------|
want it come and get it (come and get it) want it come and get it
|--------------------------|-------------------|--------------------------|
|--------------------------|-------------------|--------------------------|
|----------2~---0----------|-------------------|----------2~---0----------|
|--5--2------------0-1-2---|-------------------|--5--2------------0-1-2---|
|--3--0------------------3-|--0----------------|--3--0------------------0-|
|--------------------------|-------------------|--------------------------|
2nd verse:
|----------------------|------------------|
|----------------------|------------------|
|--5--2-----2----------|------------------|
|--5--2-----2----------|------------------|
|--3--0--0--0----------|------------------|
|----------------------|------------------|

after 2nd chorus to solo part:


want it come and get it
|----------------------|----------------------|----------------------|
|----------------------|----------------------|----------------------|
|----------------------|--5--2-----2----------|-----------2----------|
|--5--2------5--2------|--5--2-----2----------|-----------2----------|
|--3--0------3--0------|--3--0--0--0----------|--3--0--0-------------|
|----------------------|----------------------|----------------------|
|----------------------|-------------------------|----------------------|
|----------------------|-------------------------|----------------------|
|-----------2----------|-----------2-------------|-----------2----------|
|-----------2----------|-----------2-------------|-----------2----------|
|--3--0--0--0----------|--3--0--0--0----0--0--0--|--3--0--0--0----------|
|----------------------|-------------------------|----------------------|
solo:
|----------------------|----------------------|----------------------|
|----------------------|----------------------|----------------------|
|----------------------|----------------------|----------------------|
|--5--2--2--2----------|--5--2--2--2----------|--5--2--2--2----------|
|--5--2--2--2----------|--5--2--2--2----------|--5--2--2--2----------|
|--3--0--0--0----------|--3--0--0--0----------|--3--0--0--0----------|
|----------------------|------------------------|-----------------------|
|----------------------|------------------------|----------------3------|
|----------------------|-----2--2-------2--2----|-----2--2--2----2------|
|--5--2--2--2----------|--5--2--2----5--2--2----|--5--2--2--2----0------|
|--5--2--2--2----------|--3--0--0----3--0--0----|--3--0--0--0-----------|
|--3--0--0--0----------|------------------------|-----------------------|

|------------------------|-----------------------|------------------------|
|------------------------|----------------3------|------------------------|
|-----2--2-------2--2----|-----2--2--2----2------|-----2--2-------2--2----|
|--5--2--2----5--2--2----|--5--2--2--2----0------|--5--2--2----5--2--2----|
|--3--0--0----3--0--0----|--3--0--0--0-----------|--3--0--0----3--0--0----|
|------------------------|----------------2------|------------------------|
|-----------------------|------------------------|-------------------------|
|----------------3------|------------------------|-------------------------|
|-----2--2--2----2------|--5--5-----5---------5--|--5----5--5--5--5--5--5--|
|--5--2--2--2----0------|--7--7--5--7----5----7--|--7----7--7--7--7--7--7--|
|--3--0--0--0-----------|--5--5--5--5----5----5--|--5----5--5--5--5--5--5--|
|-----------------------|--------3-------3-------|-------------------------|
want it come and
|------------------------|-------------------|----------------------|
|------------------------|-------------------|----------------------|
|--7--7-----7------------|-------------------|----------------------|
|--9--9--7--9----7----2--|--2----------------|--5--2----------------|
|--7--7--7--7----7----2--|--2----------------|--3--0----------5--7--|
|--------5-------5----0--|--0----------------|----------------3--5--|

get it want it come and get it


|--------------------|----------------------|--------------------|
|--------------------|----------------------|--------------------|
|--------------------|----------------------|--------------------|
|--5--2--------------|--5--2----------------|--5--2--------------|
|--3--0--------------|--3--0----------5--7--|--3--0--------------|
|--------------------|----------------3--5--|--------------------|
pattern till end:
|------------------------|------------------|--------------------------|-----------|
|------------------------|---------3-3--3---|--------------------------|-----3--3--|
|----------2~-0----------|---------2-2--2---|----------2~---0----------|-----2--2--|
|--5--2----------0-1-2---|--2------0-0--0---|--5--2------------0-1-2---|--2--0--0--|
|--3--0----------------3-|--0---------------|--3--0------------------3-|--0--------|
|------------------------|------------------|--------------------------|-----------|
Damned.tab

Damned
AC DC

Intro + verse:
E|--------------------|--------------------|--------------------|--------------------|
B|--------------------|--------------------|--------------------|--------------------|
G|----------------2-2-|--5------2----------|----------------2-2-|--5------2----------|
D|----------------2-2-|--5------2----------|----------------2-2-|--5------2----------|
A|----------------0-0-|--3------0----------|----------------0-0-|--3------0----------|
E|--------------------|--------------------|--------------------|--------------------|

to chorus: I'll be damned I'll be


|--------------------|-----------------------|-------------------|------------------|
|--------------------|-----------------------|-------------------|------------------|
|----------------2-2-|--5------2----9--8--7--|------7------------|------------------|
|----------------2-2-|--5------2----9--8--7--|------7\-----------|------------------|
|----------------0-0-|--3------0----7--6--5--|------5------------|------------------|
|--------------------|-----------------------|-------------------|------------------|
Damned if I... Damned if I...
|---------------------|----------------------|---------------------|--------------------|
|------------------3--|----------------------|------------------3--|----------3---------|
|--5------2--------2--|--------2-------2-0-2-|--5------2--------2--|----------0----2----|
|--5------2--------0--|--------2-------------|--5------2--------0--|----------0----2----|
|--0------0-----------|--------0-------------|--0------0-----------|---------------0----|
|---------------------|----------------------|---------------------|----------3---------|
Damned if I...
|---------------------|----------------|------------------------|----------------------|
|------------------3--|----------------|------------------------|----------------------|
|--5------2--------2--|-----2----------|--5----5----5--7--8--9--|----9--9--9--9\-------|
|--5------2--------0--|-----2----------|--5----5----5--7--8--9--|----9--9--9--9--------|
|--0------0-----------|-----0----------|--3----3----3--5--6--7--|----7--7--7--7--------|
|---------------------|----------------|------------------------|----------------------|
2nd verse:

|--------------------|--------------------|--------------------|------------------|
|--------------------|--------------------|--------------------|------------------|
|--5------2----------|----------------2-2-|--5------2----------|------------------|
|--5------2----------|----------------2-2-|--5------2----------|------------------|
|--3------0----------|----------------0-0-|--3------0----------|------------------|
|--------------------|--------------------|--------------------|------------------|

during solo after 2nd chorus:


|--------------------|--------------------|--------------------|--3-----------------|
|--------------------|---------3----------|--------------------|--3------3----------|
|--2------2----------|--5------2----------|--2------2----------|--0------2----------|
|--2------2----------|--5------0----------|--2------2----------|--0------0----------|
|--0------0----------|--3-----------------|--0------0----------|--------------------|
|--------------------|--------------------|--------------------|--3------2----------|
|--------------------|--------------------|--------------------|--3-----------------|
|--------------------|---------3----------|--------------------|--3------3----------|
|--2------2----------|--5------2----------|--2------2----------|--0------2----------|
|--2------2----------|--5------0----------|--2------2----------|--0------0----------|
|--0------0----------|--3-----------------|--0------0----------|--------------------|
|--------------------|--------------------|--------------------|--3------2----------|
|--------------------------|--------------------------|-------------------------|
|--------------------------|--------------------------|-------------------------|
|--5--5--5--5--5--5--5--5--|--5--5--5--5--5--7--8--9--|----9--9--9--9--9--9--9--|
|--5--5--5--5--5--5--5--5--|--5--5--5--5--5--7--8--9--|----9--9--9--9--9--9--9--|
|--3--3--3--3--3--3--3--3--|--3--3--3--3--3--5--6--7--|----7--7--7--7--7--7--7--|
|--------------------------|--------------------------|-------------------------|

Chorus:
I'll be damned if I ...
|-------------------|---------------------|----------------------|
|-------------------|------------------3--|----------------------|
|--9----------------|--5------2--------2--|--------2-------2-0-2-|
|--9----------------|--5------2--------0--|--------2-------------|
|--7----------------|--0------0-----------|--------0-------------|
|-------------------|---------------------|----------------------|
Hold Me Back.tab

Hold Me Back
AC DC

Intro Angus:
E|------------------------|----------------------------------|
B|------------12--13--15--|--13--12--13--15--13--12--13--15--|
G|------------12--12--12--|--12--12--12--12--12--12--12--12--|
D|------------------------|----------------------------------|
A|------------------------|----------------------------------|
E|------------------------|----------------------------------|
|--------------------------------|----------------------------------|
|--13--12--13--15----12--13--15--|--13--12--13--15--13--12--13--15--|
|--12--12--12--12----12--12--12--|--12--12--12--12--12--12--12--12--|
|--------------------------------|----------------------------------|
|--------------------------------|----------------------------------|
|--------------------------------|----------------------------------|

|--------------------------------|----------------------------------|
|--13--12------12----12--13--15--|--13--12--13--15--13--12--13--15--|
|--12--12--12--12----12--12--12--|--12--12--12--12--12--12--12--12--|
|--------------------------------|----------------------------------|
|--------------------------------|----------------------------------|
|--------------------------------|----------------------------------|
with Malcolm:
|--------------------------------|----------------------------------|
|--------------------------------|----------------------------------|
|--------------------------------|----------------------------------|
|---------------------5---5---5--|---5---5---5---5---5---5---5---5--|
|---------------------5---7---8--|---7---5---7---8---7---5---7---8--|
|--------------------------------|----------------------------------|

|--------------------------------|----------------------------------|
|--13--12--13--15----12--13--15--|--13--12--13--15--13--12--13--15--|
|--12--12--12--12----12--12--12--|--12--12--12--12--12--12--12--12--|
|--------------------------------|----------------------------------|
|--------------------------------|----------------------------------|
|--------------------------------|----------------------------------|
|--------------------------------|----------------------------------|
|--------------------------------|----------------------------------|
|--------------------------------|----------------------------------|
|---5---5-------5-----5---5---5--|---5---5---5---5---5---5---5---5--|
|---7---5---5---5-----5---7---8--|---7---5---7---8---7---5---7---8--|
|--------------------------------|----------------------------------|
I got a big...

|-----------------------------|--------------------------|
|--13--12------12----3--5--6--|--5--3--5--6--5--3--5--6--|
|--12--12--12--12----0--0--0--|--0--0--0--0--0--0--0--0--|
|-----------------------------|--------------------------|
|-----------------------------|--------------------------|
|-----------------------------|--------------------------|
|-----------------------------|--------------------------|
|-----------------------------|--------------------------|
|-----------------------------|--------------------------|
|---5---5-------5----5--5--5--|--5--5--5--5--5--5--5--5--|
|---7---5---5---5----5--7--8--|--7--5--7--8--7--5--7--8--|
|-----------------------------|--------------------------|
I got a... Got a...
|-------------------------|--------------------------|-------------------------|
|--5--3-----5----3--5--6--|--5--3--5--6--5--3--5--6--|--5--3--0-------3--5--6--|
|--0--0--4--5----0--0--0--|--0--0--0--0--0--0--0--0--|--0--0--0--0----0--0--0--|
|-------------------------|--------------------------|-----------0-------------|
|-------------------------|--------------------------|-------------------------|
|-------------------------|--------------------------|-------------------------|
|-------------------------|--------------------------|-------------------------|
|-------------------------|--------------------------|-------------------------|
|-------------------------|--------------------------|-------------------------|
|--5--5-----5----5--5--5--|--5--5--5--5--5--5--5--5--|--5--5-----5----5--5--5--|
|--7--5--5--3----5--7--8--|--7--5--7--8--7--5--7--8--|--7--5--5--5----5--7--8--|
|-------------------------|--------------------------|-------------------------|
Got a...
|--------------------------|-------------------------|--------------------------|
|--5--3--5--6--5--3--5--6--|--5--3-----5----3--5--6--|--5--3--5--6--5--3--5--6--|
|--0--0--0--0--0--0--0--0--|--0--0--4--5----0--0--0--|--0--0--0--0--0--0--0--0--|
|--------------------------|-------------------------|--------------------------|
|--------------------------|-------------------------|--------------------------|
|--------------------------|-------------------------|--------------------------|
|--------------------------|-------------------------|--------------------------|
|--------------------------|-------------------------|--------------------------|
|--------------------------|-------------------------|--------------------------|
|--5--5--5--5--5--5--5--5--|--5--5-----5----5--5--5--|--5--5--5--5--5--5--5--5--|
|--7--5--7--8--7--5--7--8--|--7--5--5--3----5--7--8--|--7--5--7--8--7--5--7--8--|
|--------------------------|-------------------------|--------------------------|
The Letter above the tab on the chorus below and through the rest of the song is
a chord.
to chorus: can't hold me back
|---------------------|----------|----------------------------------|
|--5--3---------------|----------|------12--13--15--13--12--13--15--|
|--0--0----0----------|----------|------12--12--12--12--12--12--12--|
|----------0----------|----------|----------------------------------|
|---------------------|----------|----------------------------------|
|----------3----------|----------|----------------------------------|
F
|---------------------|----------|----------------------------------|
|---------------------|----------|----------------------------------|
|---------------------|----------|----------------------------------|
|--5--5----5----------|----------|--10--10--10--10--10--10--10--10--|
|--7--5----5----------|----------|-- 8---8---8---8---8---8---8---8--|
|----------3----------|----------|----------------------------------|
can't hold me back
|----------------------------------|----------------------------------|
|--13--12--13--15------12--13--15--|--13--12--13--15--13--12--13--15--|
|--12--12--12--12------12--12--12--|--12--12--12--12--12--12--12--12--|
|----------------------------------|----------------------------------|
|----------------------------------|----------------------------------|
|----------------------------------|----------------------------------|
C G
|----------------------------------|----------------------------------|
|----------------------------------|----------------------------------|
|----------------------------------|----------------------------------|
|--10--10--10--10--10--10--10--10--|---5---5---5---5---5---5---5---5--|
|---7---7---7---7---7---7---7---7--|---5---5---5---5---5---5---5---5--|
|----------------------------------|----------------------------------|
can't hold me back
|----------------------------------|----------------------------------|
|--13--12--13--15------12--13--15--|--13--12--13--15--13--12--13--15--|
|--12--12--12--12------12--12--12--|--12--12--12--12--12--12--12--12--|
|----------------------------------|----------------------------------|
|----------------------------------|----------------------------------|
|----------------------------------|----------------------------------|
F
|----------------------------------|----------------------------------|
|----------------------------------|----------------------------------|
|----------------------------------|----------------------------------|
|---5---5---5---5---5---5---5---5--|--10--10--10--10--10--10--10--10--|
|---5---5---5---5---5---5---7---8--|--8---8---8---8---8---8---8---8---|
|----------------------------------|----------------------------------|
..attack can't hold me back
|----------------------------------|----------------------------------|
|--13--12--13--15------12--13--15--|--13--12--13--15--13--12--13--15--|
|--12--12--12--12------12--12--12--|--12--12--12--12--12--12--12--12--|
|----------------------------------|----------------------------------|
|----------------------------------|----------------------------------|
|----------------------------------|----------------------------------|
C G
|----------------------------------|----------------------------------|
|----------------------------------|----------------------------------|
|----------------------------------|----------------------------------|
|--10--10--10--10--10--10--10--10--|---5---5---5---5---5---5---5---5--|
|---7---7---7---7---7---7---7---7--|---5---5---5---5---5---5---5---5--|
|----------------------------------|----------------------------------|
to verse: Got a...
|----------------------------------|--------------------------|
|--13--12------15-------3---5---6--|--5--3--5--6--5--3--5--6--|
|--12--12------12-------0---0---0--|--0--0--0--0--0--0--0--0--|
|----------------------------------|--------------------------|
|----------------------------------|--------------------------|
|----------------------------------|--------------------------|
|----------------------------------|--------------------------|
|----------------------------------|--------------------------|
|----------------------------------|--------------------------|
|---5---5---5---5---5---5---5---5--|--5--5--5--5--5--5--5--5--|
|---5---5---5---5---5---5---7---8--|--7--5--7--8--7--5--7--8--|
|----------------------------------|--------------------------|

after 2nd chorus:


|----------------------------------|------------------------------|
|--13--12--13--15--13--12--13--15--|--13--12--13--15-----------3--|
|--12--12--12--12--12--12--12--12--|--12--12--12--12-----------4--|
|----------------------------------|---------------------------5--|
|----------------------------------|---------------------------5--|
|----------------------------------|---------------------------3--|
F C
|----------------------------------|------------------------------|
|----------------------------------|------------------------------|
|----------------------------------|------------------------------|
|--10--10--10--10--10--10--10--10--|--10--10--10--10--5--5--5--5--|
|---8---8---8---8---8---8---8---8--|---7---7---7---7--5--5--5--5--|
|----------------------------------|------------------3--3--3--3--|

on solo part play some chord changes G - C


House Of Jazz.tab

House Of Jazz
AC DC

Intro:

E|--------------------|-----------------------------|-----------------------------|
B|--------------------|-----------------------------|-----------------------------|
G|--------------------|-----------------------------|-----------------------------|
D|--------------5--7--|--8p7------------------5--7--|--8p7------------------5--7--|
A|--------------5--7--|--7-7-7p5--------------5--7--|--7-7-7p5--7-----7-----5--7--|
E|--------------------|-----------0--0--0--0--------|-----------0--0--0--0--------|
band:
|-----------------------------|---------------------------|
|-----------------------------|---------------------------|
|-----------9-----------------|----------------------2----|
|--8p7------9-----9-----5--7--|--8p7------------5----2----|
|--7-7-7p5--------------5--7--|--7-7-7p5--------5----0----|
|-----------0--0--0--0--------|-----------0--0--3---------|
|---------------------------|---------------------------|---------------------------|
|---------------------------|---------------------------|---------------------------|
|--3p2-0--------------0--2--|--3p2-0--------------0--2--|--3p2-0--------------0--2--|
|--2-2---2-----2------0--2--|--2-2---2-----2------0--2--|--2-2---2-----2------0--2--|
|--------------2------------|--------------2------------|--------------2------------|
|-----------0--0------------|-----------0--0------------|-----------0--0------------|
humdinger bell ringer
|---------------------------|-----------------------------|-----------------------------|
|---------------------------|-----------------------------|-----------------------------|
|--3p2-0--------------0--2--|--3p2-0----------------0--2--|--3p2-0----------------0--2--|
|--2-2---2-----2------0--2--|--2-2---2--------------0--2--|--2-2---2--------------0--2--|
|--------------2------------|-----------------------------|-----------------------------|
|-----------0--0------------|-----------0--0--0--0--------|-----------0--0--0--0--------|
got a nasty... to slow you down mud slinger
|-----------------------------|---------------------------|-----------------------------|
|-----------------------------|---------------------------|-----------------------------|
|--3p2-0----------------0--2--|--3p2-0--------------0--2--|--3p2-0----------------0--2--|
|--2-2---2--------------0--2--|--2-2---2--2--2------0--2--|--2-2---2--------------0--2--|
|-----------------------------|-----------2--2------------|-----------------------------|
|-----------0--0--0--0--------|-----------0--0------------|-----------0--0--0--0--------|
gold digger who point... and do you down
|-----------------------------|-----------------------------|---------------------------|
|-----------------------------|-----------------------------|---------------------------|
|--3p2-0----------------0--2--|--3p2-0----------------0--2--|--3p2-0--------------0--2--|
|--2-2---2--------------0--2--|--2-2---2--------------0--2--|--2-2---2--2--2------0--2--|
|-----------------------------|-----------------------------|-----------2--2------------|
|-----------0--0--0--0--------|-----------0--0--0--0--------|-----------0--0------------|
kickin' and fighting... lightnin' blindin'...
|-----------------------------|----------------------------|-----------------------------|
|-----------------------------|----------------------------|-----------------------------|
|--3p2-0----------------0--2--|--3p2-0---------------0--2--|--3p2-0----------------0--2--|
|--2-2---2--------------0--2--|--2-2---2--2--2----2--0--2--|--2-2---2--------------0--2--|
|-----------------------------|-----------2--2----2--------|-----------------------------|
|-----------0--0--0--0--------|-----------0--0----0--------|-----------0--0--0--0--------|
are you comin' in are you comin' in I said
|--------------------------|------------------------|--------------------------|
|--------------------------|------------------------|--------------------------|
|--3p2-0-------------------|--0----0----0--0--0--0--|--2--2--2--2--2--2--2--2--|
|--2-2---2--2--2--------2--|--0----0----0--0--0--0--|--2--2--2--2--2--2--2--2--|
|-----------2--2--------2--|------------------------|--0--0--0--0--0--0--0--0--|
|-----------0--0--------0--|--3----3----3--3--3--3--|--------------------------|
Chorus:
come into the house of come into the house of
|--------------------------|--------------------------|
|--------------------------|--------------------------|
|--------------------------|--2--2--2--2--2--2--2--2--|
|--2--2--2--2--2--2--2--2--|--2--2--2--2--2--2--2--2--|
|--2--2--2--2--2--2--2--2--|--0--0--0--0--0--0--0--0--|
|--0--0--0--0--0--0--0--0--|--------------------------|
come into the house of jazz
|--------------------------|--------------------------|
|--------------------------|--------------------------|
|--------------------------|--------------------------|
|--5--5--5--5--5--5--5--5--|--5--5--5--5--5--5--5--5--|
|--5--5--5--5--5--5--5--5--|--5--5--5--5--5--5--5--5--|
|--3--3--3--3--3--3--3--3--|--2--2--2--2--2--2--2--2--|
come into the house of come into the house of
|--------------------------|--------------------------|
|--------------------------|--------------------------|
|--------------------------|--2--2--2--2--2--2--2--2--|
|--2--2--2--2--2--2--2--2--|--2--2--2--2--2--2--2--2--|
|--2--2--2--2--2--2--2--2--|--0--0--0--0--0--0--0--0--|
|--0--0--0--0--0--0--0--0--|--------------------------|
come into the house of jazz 2nd verse:
|--------------------------|--------------------------|----------------------------|
|--------------------------|--------------------------|----------------------------|
|--------------------------|--4--4--4--4--4--4--0--2--|--3p2-0---------------0--2--|
|--5--5--5--5--5--5--5--5--|--4--4--4--4--4--4--0--2--|--2-2---2--2--2----2--0--2--|
|--5--5--5--5--5--5--5--5--|--2--2--2--2--2--2--------|-----------2--2----2--------|
|--3--3--3--3--3--3--3--3--|--------------------------|-----------0--0----0--------|

After 2nd chorus:


Jazz are you comin' in solo:
|--------------------------|--------------------|--------------------|
|--------------------------|-------3------------|--3-----------------|
|--4--4--4--4--4--4--4--4--|--1----2------------|--2----2------------|
|--4--4--4--4--4--4--4--4--|--2----0------------|--0----2------------|
|--2--2--2--2--2--2--2--2--|--2-----------------|-------0------------|
|--------------------------|--0-----------------|--------------------|
|--------------------|----------------------|----------------------------|
|-------3------------|--3-------------------|----------------------------|
|--1----2------------|--2----2----0----2----|--3p2-0---------------0--2--|
|--2----0------------|--0----2----0----2----|--2-2---2--2--2----2--0--2--|
|--2-----------------|-------0---------0----|-----------2--2----2--------|
|--0-----------------|------------3---------|-----------0--0----0--------|
|----------------------------|----------------------------|----------------------------|
|----------------------------|----------------------------|----------------------------|
|--3p2-0---------------0--2--|--3p2-0---------------0--2--|--3p2-0---------------------|
|--2-2---2--2--2----2--0--2--|--2-2---2--2--2----2--0--2--|--2-2---2--2--2----2--2--2--|
|-----------2--2----2--------|-----------2--2----2--------|-----------2--2----2--2--2--|
|-----------0--0----0--------|-----------0--0----0--------|-----------0--0----0--0--0--|
|------------------------|--------------------------|----------------------------|
|------------------------|--------------------------|----------------------------|
|--0----0----0--0--0--0--|--2--2--2--2--2--2--0--2--|--3p2-0---------------0--2--|
|--0----0----0--0--0--0--|--2--2--2--2--2--2--0--2--|--2-2---2--2--2----2--0--2--|
|------------------------|--0--0--0--0--0--0--------|-----------2--2----2--------|
|--3----3----3--3--3--3--|--------------------------|-----------0--0----0--------|
I said
|----------------------------|----------------------|--------------------------|
|----------------------------|----------------------|--------------------------|
|--3p2-0---------------------|--0----2----0----2----|--2--2--2--2--2--2--2--2--|
|--2-2---2--2--2----2--2--2--|--0----2----0----2----|--2--2--2--2--2--2--2--2--|
|-----------2--2----2--2--2--|-------0---------0----|--0--0--0--0--0--0--0--0--|
|-----------0--0----0--0--0--|--3---------3---------|--------------------------|

come into the house of... (chorus)


|--------------------------|
|--------------------------|
|--------------------------|
|--2--2--2--2--2--2--2--2--|
|--2--2--2--2--2--2--2--2--|
|--0--0--0--0--0--0--0--0--|
Meltdown.tab

Meltdown
AC DC

Intro:
E|-------------------|-----------------------|-------------------|-----------------------|
B|-------------------|-----------------------|-------------------|-----------------------|
G|-------------------|-----9--7----6--9------|-------------------|-----9--7----6--9------|
D|----------------5/-|--6--7--9----7--7------|-------------------|-----7--9----7--7------|
A|-------------------|-----------------------|----------------5/-|--7--------------------|
E|-------------------|-----------------------|----------------0--|--0--------------------|
Both guitars:
|-------------------|------------------------|------------------------|
|-------------------|------------------------|------------------------|
|-------------------|-----9--7----6--9-------|-----9--7----6--9-------|
|-------------------|-----7--9----7--7-------|-----7--9----7--7-------|
|----------------5/-|--7------------------5/-|--7------------------5/-|
|----------------0--|--0------------------0--|--0------------------0--|
|-------------------|------------------------|------------------------|
|-------------------|------------------------|------------------------|
|-------------------|-------------2--2-------|-------------2--2-------|
|-------------------|--2--2-------2--2-------|--2--2-------2--2-------|
|----------------0--|--2--2--5----0--0----0--|--2--2--5----0--0----0--|
|-------------------|--0--0------------------|--0--0------------------|

Angus to verse: !!!


|------------------------|
|------------------------|
|-----9--7----6--9-------|
|-----7--9----7--7----5/-|
|--7---------------------|
|--0---------------------|
Verse:
|------------------------|------------------------|------------------------|
|------------------------|------------------------|------------------------|
|-----9--7----6--9-------|-----9--7----6--9-------|-----9--7----6--9-------|
|--6--7--9----7--7----5/-|--6--7--9----7--7----5/-|--6--7--9----7--7----5/-|
|------------------------|------------------------|------------------------|
|------------------------|------------------------|------------------------|
|------------------------|------------------------|------------------------|
|------------------------|------------------------|------------------------|
|------------------------|------------------------|------------------------|
|-------------2--2-------|-------------2--2-------|-------------2--2-------|
|--2--2--5----0--0----0--|--2--2--5----0--0----0--|--2--2--5----0--0----0--|
|--0--0------------------|--0--0------------------|--0--0------------------|
Bridge to chorus:
man it's getting hot hot
|------------------------|------------------------|
|---------------------7~-|---------------------7~-|
|-----9--7----6--9----7~-|------0--2--0--2--0--7~-|
|--6--7--9----7--7-------|------0--2--0--2--0-----|
|------------------------|------------------------|
|------------------------|------------------------|
|------------------------|------------------------|
|------------------------|------------------------|
|---------------------7~-|------0--2--0--2--0--7~-|
|-------------2--2----7~-|------0--2--0--2--0--7~-|
|--2--2--5----0--0-------|------------------------|
|--0--0------------------|------------------------|
hot I say man it's getting hot hot hot it's getting hotter
|------------------------|------------------------|------------------------|
|---------------------7~-|---------------------7~-|---------------------7~-|
|------0--2--0--2--0--7~-|------0--2--0--2--0--7~-|------0--2--0--2--0--7~-|
|------0--2--0--2--0-----|------0--2--0--2--0-----|------0--2--0--2--0-----|
|------------------------|------------------------|------------------------|
|------------------------|------------------------|------------------------|
|------------------------|------------------------|------------------------|
|------------------------|------------------------|------------------------|
|------0--2--0--2--0--7~-|------0--2--0--2--0--7~-|------0--2--0--2--0--7~-|
|------0--2--0--2--0--7~-|------0--2--0--2--0--7~-|------0--2--0--2--0--7~-|
|------------------------|------------------------|------------------------|
|------------------------|------------------------|------------------------|
and hotter man it's getting hot hot
|------------------------|------------------------|------------------------|
|---------------------7~-|---------------------7~-|---------------------7~-|
|------0--2--0--2--0--7~-|------0--2--0--2--0--7~-|------0--2--0--2--0--7~-|
|------0--2--0--2--0-----|------0--2--0--2--0-----|------0--2--0--2--0-----|
|------------------------|------------------------|------------------------|
|------------------------|------------------------|------------------------|
|------------------------|------------------------|------------------------|
|------------------------|------------------------|------------------------|
|------0--2--0--2--0--7~-|------0--2--0--2--0--7~-|------0--2--0--2--0--7~-|
|------0--2--0--2--0--7~-|------0--2--0--2--0--7~-|------0--2--0--2--0--7~-|
|------------------------|------------------------|------------------------|
|------------------------|------------------------|------------------------|
getting hotter round here
|-----------------------|--------------------------------------|
|-----------------------|--------------------------------------|
|------0--2--0--2--0----|--2--2--2--2--2--2--2--2--2--2--2--2--|
|------0--2--0--2--0----|--2--2--2--2--2--2--2--2--2--2--2--2--|
|-----------------------|--0--0--0--0--0--0--0--0--0--0--0--0--|
|-----------------------|--------------------------------------|
|-----------------------|--------------------------------------|
|-----------------------|--------------------------------------|
|------0--2--0--2--0----|--2--------2--------2--------2--------|
|------0--2--0--2--0----|--2--------2--------2--------2--------|
|-----------------------|--0--------0--------0--------0--------|
|-----------------------|--------------------------------------|
Chorus:
it's a meltdown
|-----------------------------------|------------------------|
|-----------------------------------|------------------------|
|--2--2--2--2--2--2--2--2--2--2--2--|-----9--7----6--9-------|
|--2--2--2--2--2--2--2--2--2--2--2--|-----7--9----7--7-------|
|--0--0--0--0--0--0--0--0--0--0--0--|--7------------------5/-|
|-----------------------------------|--0------------------0--|
| | |
|-----------------------------------|------------------------|
|-----------------------------------|------------------------|
|--2--------2--------2--------2-----|-------------2--2-------|
|--2--------2--------2--------2-----|--2--2-------2--2-------|
|--0--------0--------0--------0-----|--2--2--5----0--0----0--|
|-----------------------------------|--0--0------------------|
it's a meltdown 2nd verse:
|------------------------|------------------------|------------------------|
|------------------------|------------------------|------------------------|
|-----9--7----6--9-------|-----9--7----6--9-------|-----9--7----6--9-------|
|-----7--9----7--7-------|-----7--9----7--7-------|-----7--9----7--7----5/-|
|--7------------------5/-|--7------------------5/-|--7---------------------|
|--0------------------0--|--0------------------0--|--0---------------------|
| | | |
|------------------------|------------------------|------------------------|
|------------------------|------------------------|------------------------|
|-------------2--2-------|-------------2--2-------|-------------2--2-------|
|--2--2-------2--2-------|--2--2-------2--2-------|--2--2-------2--2-------|
|--2--2--5----0--0----0--|--2--2--5----0--0----0--|--2--2--5----0--0----0--|
|--0--0------------------|--0--0------------------|--0--0------------------|

Malcolm chord change during solo:


|------------------------|------------------------|
|------------------------|-------------3--3-------|
|-------------2--2-------|--2--2-------2--2-------|
|--2--2-------2--2-------|--2--2--5----0--0----0--|
|--2--2--5----0--0----0--|--0--0------------------|
|--0--0------------------|------------------------|
|------------------------|------------------------|
|-------------3--3-------|------------------------|
|--2--2-------2--2-------|-------------2--2-------|
|--2--2--5----0--0----0--|--2--2-------2--2-------|
|--0--0------------------|--2--2--5----0--0----0--|
|------------------------|--0--0------------------|
Safe In New York City.tab

Safe In New York City


AC DC

Intro:

E|--------------------|------------------|--------------------|--------------------|
B|--------------------|------------------|--------------------|--------------------|
G|--0--2--------------|------------------|--0--------2--------|--0-----------------|
D|--0--2--------------|------------------|--0--------2--------|--0--2--------------|
A|-----0--------------|------------------|-----------0--------|-----2--------------|
E|--3-----------------|------------------|--3-----------------|--3--0--------------|
Theme 1
this is the main riff where the guitars coming in (repeat):
|-------------------|--------------------------|-------------------------|
|-------------------|--------------------------|-------------------------|
|-------------------|--------------------------|-------------------------|
|-------------------|--------------------------|-----------------2-------|
|-------------------|--5-----7-----8-----7-----|--5-----7-----5--2-------|
|----------------0--|--3--0--5--0--6--0--5--0--|--3--0--5--0--3--0----0--|

before the vocals starts it's a bit different:


|--------------------------|---------------------|
|--------------------------|---------------------|
|--------------------------|---------------------|
|--------------------------|----------2----------|
|--5--5--7--7--8--8--7--7--|--5----7--2----------|
|--3--3--5--5--6--6--5--5--|--3----5--0----------|

Theme 2
verse part:
|---------------------|--------------------------|---------------------|
|---------------------|--------------------------|---------------------|
|---------------------|--------------------------|---------------------|
|---------------------|--------------------------|--------------2------|
|---------------------|--------------------------|-----2--------2------|
|------------0--6--5--|--3--0--6--5--3--0--6--5--|--3--0--------0------|

Chorus: simply play E and then start with theme 1


|-------------------|
|-------------------|
|-------------------|
|--------------2----|
|--------------2----|
|--------------0----|
Steven’s Song.tab

Steven’s Song
AC-DC

INTRO:
E--------------------------------17-------20-18---------|
B----------3---16-15-16----15-14----18b20-------16-7----|
G----------2------------18-------------------------6----|
D----------2---------------------------------------7----|
A--------------------------------------------------7----|
E-------------------------------------------------------|
VERSE:
C------Ama7-----D-D5
C------Ama7--G--B9-D
C6---F--G7--Fma7-F
[REAPEAT 4X]

OUTRO:
E------------18-19-14b-17--12-13-10--8--|
B---5--------------------------------0--|
G---6-----------------------------------|
D---2-----------------------------------|
A------------------------------------9--|
E---------------------------------------|
Hell Ain't A Bad Place To Be.tab

Hell Ain't A Bad Place To Be


AC/DC

G5 D/F# G5 D/F# G5 D/F# A


e|--3----2----3--|-2----3----2--|--------------|--------------|
b|--3----3----3--|-3----3----3--|2-------------|--------------|
g|--0----2----0--|-2----0----2--|2-------------|--------------|
D|--0----0----0--|-0----0----0--|2-------------|--------------| 4 Times!
A|---------------|--------------|0-------------|--------------|
E|--3----2----3--|-2----3----2--|--------------|--------------|
Pattern 1 |\ 2 x ! /|
e|--------------|--------------|--------------|--------------||-------------||
b|--------------|--------------|--------------|--------------||---2-2-2-----||
g|--------------|--------------|--------------|--------------||---2-2-2-----||
D|--------------|--------------|-5----4----5--|--4----5----4-||-5-2-2-2-----||
A|--------------|--------------|-0----0----0--|--0----0----0-||-0-0-0-0-----||
E|--------------|--------------|--------------|--------------||-------------||
Pattern 2
young, Knows
D/A Dsus4/A D/A Dsus4/A D/A
e|--------------|--------------|--------------|--------------|----------------|
b|-2------------|------------3-|--------------|-3------------|-3--3--3--3----3|
g|-3------------|------------2-|--------------|-2------------|-2--2--2--2----2|
D|-4------------|------------5-|--------------|-4------------|-5--5--5--5----4|
A|-0------------|------------0-|--------------|-0------------|-0--0--0--0----0|
E|--------------|--------------|--------------|--------------|----------------|
E E A E G5 end Pattern 1
e|--------------|--------------|------------3-|--------------|----------------|
b|-0--------0--2|--------------|-0----------3-|--------------|----------------|
g|-1--------1--2|--------------|-1----------0-|--------------|----------------|
D|-2--------2--2|--------------|-2----------0-|--------------|----------------|
A|-2--------2--0|--------------|-2------------|--------------|----------------|
E|-0--------0---|--------------|-0----------3-|--------------|----------------|
Pattern 3

e|----------------------------------------------------------------------------|
b|-------------------------------------------------------2--2--2--------------|
g|-------------------------------------------------------2--2--2--------------|
D|-5--------4--------5--------4--------5--------4-----5--2--2--2--------------|
A|-0--0--0--0--0--0--0--0--0--0--0--0--0--0--0--0--0--0--0--0--0--0--0--0--0--|
E|----------------------------------------------------------------------------|
end Pattern 3
e|--------------------------|
b|----2--2--2---------------|
g|----2--2--2---------------|
D|-5--2--2--2---------------|
A|-0--0--0--0--0--0--0--0---|
E|--------------------------|
Solo:w/Pattern 3
~~~~~~~~~~~~~~~~~~~~~~~~~~~~~~~~~~~~ ~~
e|----------------------------------------------------------------------------|
b|-----------------------------------------------------------------5----------|
g|-----2--2--2--2--2--2--2--2--2--2--2--2--2-----------------------5----------|
D|----------------------------------------------x-----7--7--7--7---5-----7---7|
A|----------------------------------------------x\\---0--0--0--0--------------|
E|----------------------------------------------x\\\--------------------------|
b b b ~~~~~~~~~
e|-------------------------------------------5--------------------------------|
b|---------------------------------------------8--5---5-----------------------|
g|---------------7-9-7---7-9-7-------7-9--7---------7---5---7--5--------------|
D|---------0-5-7-------------------7----------------------7-------7---\-------|
A|---0-5-7-------------------------------------------------------------\------|
E|----------------------------------------------------------------------------|

b hb ~~~~~~
e|----------------------------------------------------------------------------|
b|8-10--10--10--10--10--10--10-----------------10--10------10--10------10--10-|
g|-----------------------------------2--2---0---------7-11--------9-11--------|
D|-----------------------------------2--2---0---------------------------------|
A|----------------------------------------------------------------------------|
E|----------------------------------------------------------------------------|

b b b ~~~~~~~ b b hb r
e|----------------------------------------------------------------------------|
b|-12-14-----12-14-----13-15------13--10------------15-17-----15-17----17---17|
g|---------------------------------------------\------------------------------|
D|----------------------------------------------------------------------------|
A|----------------------------------------------------------------------------|
E|----------------------------------------------------------------------------|

hb b b
e|-------------------15--------15---------------------------------------------|
b|-15-13----15-17--------15-17-------15-17-----17--17--17--17---------15-17---|
g|----------------------------------------------------------------------------|
D|----------------------------------------------------------------------------|
A|----------------------------------------------------------------------------|
E|----------------------------------------------------------------------------|

b b b b b hb
e|-15--------------15-17------15-17---17----\--------15-17-----15-17----17----|
b|-----15-17---------------------------------\--------------------------------|
g|----------------------------------------------------------------------------|
D|----------------------------------------------------------------------------|
A|----------------------------------------------------------------------------|
E|----------------------------------------------------------------------------|

End with:
e|--------------------|
b|-2--2--2--2---------|
g|-2--2--2--2---------| 4 Times !
D|-2--2--2--2---------|
A|-0--0--0--0---------|
E|--------------------|
Baby Please Don't Go.tab

Baby Please Don't Go


AC/DC

Intro:
E|-------------------------|-------------------------|
B|-------------------------|-------------------------|
G|-------------------------|-------------------------|
D|-------------------------|-------------------------|
A|-------------------------|-------------------------|
E|--0--0--0--0----0--0--0--|--0--0--0--0----0--0--0--|
|-------------------------|-------------------------|-------------------------|
|-------------------------|-------------------------|-------------------------|
|-------------------------|-------------------------|-------------------------|
|-------------------------|-------------------------|-------------------------|
|-------------------------|-------------------------|-------------------------|
|--0--0--0--0----0--0--0--|--0--0--0--0----0--0--0--|--0--0--0--0----0--0--0--|
theme 1:
|-------------------------|-------------------------|--------------------------|
|-------------------------|-------------------------|------------------10/-12--|
|-------------------------|-------------------------|--------------------------|
|-------------------------|-------------------------|--------------------------|
|-------------------------|-------------------------|--------------------------|
|--0--0--0--0----0--0--0--|--0--0--0--0----0--0--0--|--0--0--0--0--------------|
(play this 3 times...................................)
|----------------------------|-----------------------|
|--15------15----------------|---------------10/-12--|
|--------------15r-14--12----|--9--------------------|
|----------------------------|-----------------------|
|----------------------------|-----------------------|
|----------------------------|-----------------------|
end theme 1 theme 2:
|----------------------------|-------------------|--------------------|
|--15------15----------------|-------------------|--17~---------------|
|--------------15r-14--12----|--9----------------|--------------------|
|----------------------------|-------------------|--------------------|
|----------------------------|-------------------|--------------------|
|----------------------------|-------------------|--------------------|
|----------------15--------------|--------------------|------------------------|
|----12h-15h-17------17--15p-12--|--------------------|------------12h-15h-17--|
|--------------------------------|--15b---------------|------------------------|
|--------------------------------|--------------------|------------------------|
|--------------------------------|--------------------|------------------------|
|--------------------------------|--------------------|------------------------|

|--15--------------------------|----------------------------------|
|------17--15h-17--------------|----------15----------------------|
|----------------------14p-12--|--15/-16------16--14p-12----------|
|------------------------------|--------------------------14--12--|
|------------------------------|----------------------------------|
|------------------------------|----------------------------------|
end theme 2
|----------------------------------|------------------------------|
|----------15----------------------|------------------------------|
|--15/-16------16--14p-12----------|------------------------------|
|--------------------------14p-12--|------------------------------|
|----------------------------------|--14p-12----------------------|
|----------------------------------|----------15--12----12--15----|
verse:
|------------------------|-----------------------|------------------------|
|------------------------|-----------------------|------------------------|
|------------------------|-----------------------|------------------------|
|------------------------|-----------------------|------------------------|
|------------------------|-----------------------|------------------------|
|--0----3----0--0--0--0--|--3----0--0----0--3----|--0----3----0--0--0--0--|
|-----------------------|------------------------|-----------------------|
|-----------------------|------------------------|-----------------------|
|-----------------------|------------------------|-----------------------|
|-----------------------|------------------------|-----------------------|
|-----------------------|------------------------|-----------------------|
|--3----0--0----0--3----|--0----3----0--0--0--0--|--3----0--0----0--3----|
|------------------------|-----------------------|------------------------|
|------------------------|-----------------------|------------------------|
|------------------------|-----------------------|------------------------|
|------------------------|-----------------------|------------------------|
|------------------------|-----------------------|------------------------|
|--0----3----0--0--0--0--|--3----0--0----0--3----|--0----3----0--0--0--0--|
|-----------------------|------------------------|-----------------------|
|-----------------------|------------------------|-----------------------|
|-----------------------|------------------------|-----------------------|
|-----------------------|------------------------|-----------------------|
|-----------------------|------------------------|-----------------------|
|--3----0--0----0--3----|--0----3----0--0--0--0--|--3----0--0----0--3----|
love you so...
|------------------------|-----------------------|-------------------|
|------------------------|-----------------------|-------------------|
|------------------------|-----------------------|--2----------------|
|------------------------|-----------------------|--2----------------|
|------------------------|-----------------------|--0----------------|
|--0----3----0--0--0--0--|--3----0--0----0--3----|-------------------|
baby please... (let ring)
|---------------------|-------3------------|------------------|
|---------------------|-------5------------|------------------|
|---------------------|-------0------------|------------------|
|---------------------|--------------------|------------------|
|----------2--0-------|--------------------|------------------|
|----------------3----|--0-----------------|------------------|
verse:
|------------------|------------------|------------------------|
|------------------|------------------|------------------------|
|------------------|------------------|------------------------|
|------------------|------------------|------------------------|
|------------------|------------------|------------------------|
|------------------|------------------|--0----3----0--0--0--0--|
|-----------------------|------------------------|-----------------------|
|-----------------------|------------------------|-----------------------|
|-----------------------|------------------------|-----------------------|
|-----------------------|------------------------|-----------------------|
|-----------------------|------------------------|-----------------------|
|--3----0--0----0--3----|--0----3----0--0--0--0--|--3----0--0----0--3----|
|------------------------|-----------------------|-------------------|
|------------------------|-----------------------|-------------------|
|------------------------|-----------------------|--2----------------|
|------------------------|-----------------------|--2----------------|
|------------------------|-----------------------|--0----------------|
|--0----3----0--0--0--0--|--3----0--0----0--3----|-------------------|
(let ring)
|---------------------|-------3------------|------------------|
|---------------------|-------5------------|------------------|
|---------------------|-------0------------|------------------|
|---------------------|--------------------|------------------|
|----------2--0-------|--------------------|------------------|
|----------------3----|--0-----------------|------------------|
now play theme 2, then theme 1, followed by bridge to solo part:
from theme 1:
|----------------------------|-------------------|-------------------|
|--15------15----------------|-------------------|-------------------|
|--------------15r-14--12----|--9----------------|-------------------|
|----------------------------|-------------------|--2----------------|
|----------------------------|-------------------|--2----------------|
|----------------------------|-------------------|--0----------------|
|-------------------|-------------------|-------------------|-------------------|
|-------------------|-------------------|-------------------|-------------------|
|-------------------|-------------------|-------------------|-------------------|
|--------------2----|--3----------------|--------------3----|--4----------------|
|--------------2----|--3----------------|--------------3----|--4----------------|
|--------------0----|--1----------------|--------------1----|--2----------------|
|-------------------|-------------------|-------------------|-------------------|
|-------------------|-------------------|-------------------|-------------------|
|-------------------|-------------------|-------------------|-------------------|
|--------------4----|--5----------------|--------------5----|--6----------------|
|--------------4----|--5----------------|--------------5----|--6----------------|
|--------------2----|--3----------------|--------------3----|--4----------------|
|-------------------|-------------------|-------------------|-------------------|
|-------------------|-------------------|-------------------|-------------------|
|-------------------|-------------------|-------------------|-------------------|
|--------------6----|--7----------------|--------------7----|--8----------------|
|--------------6----|--7----------------|--------------7----|--8----------------|
|--------------4----|--5----------------|--------------5----|--6----------------|
|-------------------|-------------------|------------------|
|-------------------|-------------------|------------------|
|-------------------|-------------------|------------------|
|--------------8----|--9----------------|------------------|
|--------------8----|--9----------------|------------------|
|--------------6----|--7----------------|------------------|
to theme 2:
|----------------------|--------------------------|------------------|
|----------------------|--------------------------|------------------|
|----------------------|--------------------------|------------------|
|--6----7----8----9----|--10----11----12----13----|------------------|
|--6----7----8----9----|--10----11----12----13----|------------------|
|--4----5----6----7----|--8-----9-----10----11----|------------------|
first part of solo:
|--7p-4p-0h-7p-4p-0h-7p-4p-0h-7p-4p-0h-|--7p-4p-0h-7p-4p-0h-7p-4p-0h-7p-4p-0--|
|--------------------------------------|--------------------------------------|
|--------------------------------------|--------------------------------------|
|--------------------------------------|--------------------------------------|
|--------------------------------------|--------------------------------------|
|--------------------------------------|--------------------------------------|
|--------------------------------------|--------------------------------------|
|--7--4--0--7--4--0--7--4--0--7--4--0--|--7--4--0--7--4--0--7--4--0--7--4--0--|
|--------------------------------------|--------------------------------------|
|--------------------------------------|--------------------------------------|
|--------------------------------------|--------------------------------------|
|--------------------------------------|--------------------------------------|
|--------------------------------------|--------------------------------------|
|--------------------------------------|--------------------------------------|
|--7--4--0--7--4--0--7--4--0--7--4--0--|--------------------------------------|
|--------------------------------------|--7--4--0--7--4--0--7--4--0--7--4--0--|
|--------------------------------------|--------------------------------------|
|--------------------------------------|--------------------------------------|
|--------------------------------------|--------------------------------------|
|--------------------------------------|--------------------------------------|
|--------------------------------------|--------------------------------------|
|--------------------------------------|--------------------------------------|
|--7--4--0--7--4--0--7--4--0--7--4--0--|--------------------------------------|
|--------------------------------------|--7--4--0--7--4--0--7--4--0--7--4--0--|

|-------------------|
|-------------------|
|-------------------|
|-------------------|
|-------------------|
|--0----------------|
________________________________________________________________________________
GUITAR 2 PLAYS
theme 1
|-----------------------|---------------------|--------------------|
|-----------------------|---------------------|--------------------|
|-----------------------|---------------------|--------------------|
|-----------------------|---------------------|--------------------|
|------------------2----|--5------2-----------|---------------2----|
|--0--0--0--0-----------|----------------3----|--0-----------------|
|---------------------|--------------------|---------------------|
|---------------------|--------------------|---------------------|
|---------------------|--------------------|---------------------|
|---------------------|--------------------|---------------------|
|--5------2-----------|---------------2----|--5------2-----------|
|----------------3----|--0-----------------|----------------3----|
end theme 1:
|--------------------|---------------------|-------------------|
|--------------------|---------------------|-------------------|
|--------------------|---------------------|-------------------|
|--------------------|---------------------|-------------------|
|---------------2----|--5------2-----------|-------------------|
|--0-----------------|----------------3----|--0----------------|
theme 2:
|-------------------|------------3-----------|-------------------|
|--5~---------------|---0h-3h-5-----5--3p-0--|-------------------|
|-------------------|------------------------|--3b---------------|
|-------------------|------------------------|-------------------|
|-------------------|------------------------|-------------------|
|-------------------|------------------------|-------------------|

|----------------------|--3---------------------|--------------------------|
|-------------0h-3h-5--|-----5--3h-5------------|--------3-----------------|
|----------------------|------------------2p-0--|--3/-4-----4--2p-0--------|
|----------------------|------------------------|--------------------2--0--|
|----------------------|------------------------|--------------------------|
|----------------------|------------------------|--------------------------|
end theme 2:
|--------------------------|------------------------|------------------------|
|--------3-----------------|------------------------|------------------------|
|--3/-4-----4--2p-0--------|------------------------|------------------------|
|--------------------2p-0--|------------------------|------------------------|
|--------------------------|--2p-0------------------|------------------------|
|--------------------------|--------3--0----0--3----|--0----3----0--0--0--0--|
on verse (middle): love you so...
|-----------------------|---------------|-----------------|------------------------|
|-----------------------|---------------|-----------------|------------------------|
|-----------------------|--2------------|-----------------|------------------------|
|-----------------------|--2------------|-----------------|------------------------|
|-----------------------|--0------------|------2--0-------|------------------------|
|--3----0--0----0--3----|---------------|------------3----|--0----3----0--0--0--0--|
on solo part:
|------------------|-----------------------------|-----------------------------|
|------------------|-----------------------------|-----------------------------|
|------------------|------9--------9--------9----|------9--------7/---9--------|
|------------------|------9--------9--------9----|------9--------7----9--------|
|------------------|-----------------------------|-----------------------------|
|------------------|-----------------------------|-----------------------------|
Back In Black 3.tab

Back In Black
AC/DC

heres the real tabs for this song. its straight out of a guitar world
book and given by angus himself.its only the main riff to it but at
least its right

E----3-3-3---------3-0--------|----3-3-3--------------------------
B----2-2-2------------3-0-----|----2-2-2--------------------------
G----3-3-3--2-2-2---------2-0-|----3-3-3--2-2-2--------------------
D-2--0-0-0--2-2-2-------------|-2--0-0-0--2-2-2-------------------
A-2---------0-0-0-------------|-2---------0-0-0--2---2---2---2-----
E-0---------------------------|-0------------------4---5---6---7---

Try a sweep picking


Thunderstruck 2.tab

Thunderstruck
AC/DC

heres another real riff straight from an angus young interview

E------------------------------|--------------------------------
B-12-0-9-0-10-0-9-0-7-0-9-0-5-0|-------------------------------
G------------------------------|-------------------------------
D------------------------------|--------------------------------
A------------------------------|-------------------------------
E------------------------------|-------------------------------
yea i think thats right i dont have my guitar or book in front of me
but im pretty sure thats right
Back in Black.tab

Back in Black
AC/DC

Intro / Verses :
E D A G
e-------0-0-0----------|--3-0----------------|
b-------2-2-2--0-0-0---|------3-0------------|
g--1----3-3-3--2-2-2---|----------2b4p0------|
d--2----2-2-2--2-2-2---|----------------(4\)-|
a--2-----------2-2-2---|---------------------|
e--0-------------------|---------------------|

E D A G
e---------------------|--------------------|
b------7-7-7----------|--------------------|
g--1---7-7-7--7-7-7---|------staccato------|
d--2---7-7-7--7-7-7---|--.---.-.-.-.-.-.---|
a--2---5-5-5--7-7-7---|--2-.-2-0-2-1-2-2\--|
e--0----------5-5-5---|----4---------------|

The Chorus:
A E B A B G D A E G D
e----------------|-----|--3-----------|------|--3--|-------|
b----------------|-----|--3--3--------|------|--3--|-3-3-3-|
g--2--1--4--2--4-|--%--|--0--2--2---2-|--%---|--0--|-2-2-2-|
d--2--2--4--2--4-|--%--|-----0--2---2-|--%---|--0--|-0-0-0-|
a--0--2--2--0--2-|-----|--------0---0-|------|-----|-------|
e-----0----------|-----|----------3---|------|--3--|-------|

Solo : (1:49) gtr 1 - chords (played more times than written)


gtr 2 - notes
e--------------------------------------------------------------|
b-------------3-----------1-----------4------------------------|
g--2----------2-----------x-----------4------------------------| 2x
d--2----------0-----------2-----------4-----0--2b(4)-r2-0---0--|
a--1---7v~~---0----5v~~---3----4v~~---2---2---------------2----|
e--0-----------------------------------------------------------|

e------------------------------------5----------------------------|
b---------------------8--5--------------8-------------------------|
g--7-7~--7-7---7b~~~---------7--7b----------7b~~--7b--5~~---------|
d--7-7~--7-7------------------------------------------------------|
a--5-5~--5-5------------------------------------------------------|
e-----------------------------------------------------------------|

e------------10--------10-----------------------------------------|
b--------10b~~~--10br~~~~-10-8--10b-r10p8-------------------15----|
g--5--7-----------------------------------9----12-----12-14b~~-14-|
d----------------------------------------------12--14-------------|
a-----------------------------------------------------------------|
e-----------------------------------------------------------------|
e------12~-12-12-12-12~~------------------------------------------|
b--15--------------------15b-r15p12----12-------------------------|
g-----------------------------------14----14p12----12-------------|
d-----------------------------------------------14----14p12-------|
a-----------------------------------------------------------------|
e-----------------------------------------------------------------|

e-------------------------------------------------12--------------|
b----------------------15p12-----------15b~~~~~~------15p12h15p12-|
g--12-----12-14b-14-12-------14p12--------------------------------|
d--12--14---------------------------------------------------------|
a-----------------------------------------------------------------|
e-----------------------------------------------------------------|

e-----------------------------------------------------------------|
b------------------------------------------------14-15--15b~~~~~--|
g--14p12h14----14-------------12--14-14b--r14-12------------------|
d-----------12----12h14-------12----------------------------------|
a-----------------------12/---------------------------------------|
e-----------------------------------------------------------------|

e-------------12--------------------------------------------------|
b----------------15-12--------------------------------------------|
g--14--12--14----------14-12---12---------------------------------|
d--14--12--14----------------14---14~~----------------------------|
a-----------------------------------------------------------------|
e-----------------------------------------------------------------|

e--------------------------------------------------------------|
b-------------3-----------1-----------4----12-15b-15-12--------|
g--2----------2-----------x-----------4-----------------14-12--|
d--2----------0-----------2-----------4------------------------|
a--1---7v~~---0----5v~~---3----4v~~---2------------------------|
e--0-----------------------------------------------------------|

e---12b----------------------------------------------------15/--|
b-------14-15-12------------------------------------15----------|
g----------------14-12--------------------12----12-----12-------|
d----------------------14-12--------12h14----14-----------------|
a----------------------------12---------------------------------|
e-------------------------------15------------------------------|
Burning Alive.tab

Burning Alive
AC/DC

E|-------------------|--------------------|------------------|
B|-------------------|--------------------|------------------|
G|--6----------------|--------2-----------|------------------|
D|--6----------------|--------2--------2--|------------------|
A|--4----------------|--------0--------2--|------------------|
E|-------------------|-----------------0--|------------------|

|---------------------|------------------|---------------------|
|---------------------|------------------|---------------------|
|--------4---------6--|------------------|---------2-----------|
|--------4---------6--|------------------|--2------2--------2--|
|--------2---------4--|------------------|--2------0--------2--|
|---------------x-----|------------------|--0---------------0--|

|------------------|----------------------|------------------|
|------------------|----------------------|------------------|
|------------------|---------4---------6--|------------------|
|------------------|------x--4------x--6--|------------------|
|------------------|------x--2------x--4--|------------------|
|------------------|----------------------|------------------|

|------------------------|------------------|---------------------|
|------------------------|------------------|---------------------|
|-----------2------------|------------------|--------4---------6--|
|-----------2---------2--|------------------|--------4---------6--|
|-----------0---------2--|------------------|--------2------x--4--|
|--0--2--4---------0--0--|------------------|---------------x-----|

|------------------|------------------------|------------------|
|------------------|------------------------|------------------|
|------------------|-----------2------------|------------------|
|------------------|-----------2------------|------------------|
|------------------|-----------0---------2--|------------------|
|------------------|--0--2--4---------0--0--|------------------|

theme (same as chorus):


|-------------------------|-----------------------|------------------------|
|-------------------------|-----------------------|------------------------|
|-----------4----4--4-----|--6----6----6--6--6----|-----------2------------|
|-----------4----4--4-----|--6----6----6--6--6----|-----------2------------|
|-----------2----2--2-----|--4----4----4--4--4----|-----------0---------2--|
|--0--2--4-------------0--|-----------------------|--0--2--4---------4--0--|

|-------------------|-------------------------|-----------------------|
|-------------------|-------------------------|-----------------------|
|------1------------|-----------4----4--4-----|--6----6----6--6--6----|
|------2------------|-----------4----4--4-----|--6----6----6--6--6----|
|------2------------|-----------2----2--2-----|--4----4----4--4--4----|
|------0------------|--0--2--4-------------0--|-----------------------|
|------------------------|-------------------|-------------------------|
|------------------------|-------------------|-------------------------|
|-----------2------------|------1------------|-----------4----4--4-----|
|-----------2------------|------2------------|-----------4----4--4-----|
|-----------0---------2--|------2------------|-----------2----2--2-----|
|--0--2--4---------4--0--|------0------------|--0--2--4-------------0--|

Burnin' alive set my soul on fire


|-------------------------|-----------------------|-------------------------|
|-------------------------|-----------------------|-------------------------|
|-------------------------|-----------------------|-------------------------|
|--6-------------------6--|-----------------------|--6-------------------6--|
|--4----4-----------2--4--|------4-----------2----|--4----4-----------2--4--|
|----------0--2--4--------|---------0--2--4-------|----------0--2--4--------|

runnin' with a gun this


|-----------------------|-------------------------|-----------------------|
|-----------------------|-------------------------|-----------------------|
|-----------------------|-------------------------|-----------------------|
|-----------------------|--6-------------------6--|-----------------------|
|------4-----------2----|--4----4-----------2--4--|------4-----------2----|
|---------0--2--4-------|----------0--2--4--------|---------0--2--4-------|

place is gonna burn no firewater


|-------------------------|-----------------------|----------------------|
|-------------------------|-----------------------|----------------------|
|-------------------------|-----------------------|--6--6--6--4----------|
|--6-------------------6--|-----------------------|--6--6--6--4----------|
|--4----4-----------2--4--|------4-----------2----|--4--4--4--2----------|
|----------0--2--4--------|---------0--2--4-------|----------------------|

or novacaine no thunderstorm no John Wayne


|----------------------|----------------------|--------------------------|
|----------------------|----------------------|--------------------------|
|----------------------|--6--6--6--4----------|--------------------------|
|--4--4--4--2----------|--6--6--6--4----------|--4--4--4-----------------|
|--4--4--4--2----------|--4--4--4--2----------|--4--4--4--2--------2--4--|
|--2--2--2--0----------|----------------------|--2--2--2--0--2--4--------|

no kids to rock nowhere to run


|----------------------|----------------------|------------------------|
|----------------------|----------------------|------------------------|
|--6--6--6--4----------|----------------------|--6--6--6--4------------|
|--6--6--6--4----------|--4--4--4--2----------|--6--6--6--4------------|
|--4--4--4--2----------|--4--4--4--2----------|--4--4--4--2----2----2--|
|----------------------|--2--2--2--0----------|----------------0----0--|

so watch out... burnin' a-


|--------------------|------------------|--------------------------|
|--------------------|------------------|--------------------------|
|--------------------|------------------|--------------------------|
|--4--------------2--|------------------|--------------2--2--2--2--|
|--4--------------2--|------------------|--2--2--2--2--2--2--2--2--|
|--2--------------0--|------------------|--0--0--0--0--0--0--0--0--|

live burnin' alive


|-----------------------|------------------------|-------------------|
|-----------------------|------------------------|-------------------|
|--6----6----6--6--6----|-----------2------------|------1------------|
|--6----6----6--6--6----|-----------2------------|------2------------|
|--4----4----4--4--4----|-----------0---------2--|------2------------|
|-----------------------|--0--2--4---------4--0--|------0------------|
burnin' alive burnin' alive
|-------------------------|-----------------------|------------------------|
|-------------------------|-----------------------|------------------------|
|-----------4----4--4-----|--6----6----6--6--6----|-----------2------------|
|-----------4----4--4-----|--6----6----6--6--6----|-----------2------------|
|-----------2----2--2-----|--4----4----4--4--4----|-----------0---------2--|
|--0--2--4-------------0--|-----------------------|--0--2--4---------4--0--|

burnin' alive
|-------------------|-------------------------|-----------------------|
|-------------------|-------------------------|-----------------------|
|------1------------|-----------4----4--4-----|--6----6------6--6--6--|
|------2------------|-----------4----4--4-----|--6----6------6--6--6--|
|------2------------|-----------2----2--2-----|--4----4------4--4--4--|
|------0------------|--0--2--4-------------0--|-----------------------|

burnin' alive they be


|--------------------------|-----------------------|--------------------------|
|--------------------------|-----------------------|--------------------------|
|--6--4--4--4--4-----------|--6----6------6--6--6--|--6--4--4--4--4-----------|
|--6--4--4--4--4--2--2--2--|--6----6------6--6--6--|--6--4--4--4--4--2--2--2--|
|--4--2--2--2--2--2--2--2--|--4----4------4--4--4--|--4--2--2--2--2--2--2--2--|
|-----------------0--0--0--|-----------------------|-----------------0--0--0--|

smokin'... (2nd verse)


|-------------------------|
|-------------------------|
|-------------------------|
|--6-------------------6--|
|--4----4-----------2--4--|
|----------0--2--4--------|

after 2nd chorus: an allout war


|-----------------------|--------------------------|-------0------------|
|-----------------------|--------------------------|-------0------------|
|--6----6------6--6--6--|--6--4--4--4--4-----------|-------1------------|
|--6----6------6--6--6--|--6--4--4--4--4--2--2--2--|-------2------------|
|--4----4------4--4--4--|--4--2--2--2--2--2--2--2--|--2----2------------|
|-----------------------|-----------------0--0--0--|--0-----------------|

|-------------------------|-----------------------|------------------------|
|-------------------------|-----------------------|------------------------|
|-----------4----4--4-----|--6----6----6--6--6----|-----------2------------|
|-----------4----4--4-----|--6----6----6--6--6----|-----------2------------|
|-----------2----2--2-----|--4----4----4--4--4----|-----------0---------2--|
|--0--2--4-------------0--|-----------------------|--0--2--4---------4--0--|

somewhere
|-------------------|-------------------------|-------------------|
|-------------------|-------------------------|-------------------|
|------1------------|-----------4----4--4--4--|--6----------------|
|------2------------|-----------4----4--4--4--|--6----------------|
|------2------------|-----------2----2--2--2--|--4----------------|
|------0------------|--0--2--4----------------|-------------------|
there's a little...
|-----------------------|-------------------|-----------------------|
|-----------------------|-------------------|-----------------------|
|----4--4----4----------|--6----------------|----4--4----4----------|
|----4--4----4----------|--6----------------|----4--4----4----------|
|----2--2----2--2----2--|--4----------------|----2--2----2--2----2--|
|---------------0----0--|-------------------|---------------0----0--|

someday maybe... he'll inhale...


|-------------------|-----------------------|-------------------|
|-------------------|-----------------------|-------------------|
|--6----------------|----4--4----4----------|--6----------------|
|--6----------------|----4--4----4----------|--6----------------|
|--4----------------|----2--2----2--2----2--|--4----------------|
|-------------------|---------------0----0--|-------------------|

to solo:
|-------------------------|
|-------------------------|
|----4--4--4--4-----------|
|----4--4--4--4--2--2--2--|
|----2--2--2--2--2--2--2--|
|----------------0--0--0--|

solo over these chords:


|-----|-----|-----|-----|
|-----|-----|-----|-----|
|--6--|--2--|--4--|-----|
|--6--|--2--|--4--|--4--|
|--4--|--0--|--2--|--4--|
|-----|-----|-----|--2--|
Riff Raff.tab

Riff Raff
AC/DC

Intro:
E|-------------------|----------------------|-------------------|
B|-------------------|----------------------|-------------------|
G|--------------7----|--7----7----7----7----|--7----------------|
D|--------------4----|--5----4----5----4----|--5----------------|
A|--------------0----|--0----0----0----0----|--0----------------|
E|-------------------|----------------------|-------------------|

|-------------------|----------------------|-------------------|
|-------------------|----------------------|-------------------|
|--------------7----|--7----7----7----7----|------------2------|
|--------------4----|--5----4----5----4----|------------2------|
|--------------0----|--0----0----0----0----|------------0------|
|-------------------|----------------------|-------------------|

|------------------|-------------------|----------------------|
|------------------|-------------------|----------------------|
|------------------|--------------7----|--7----7----7----7----|
|------------------|--------------4----|--5----4----5----4----|
|------------------|--------------0----|--0----0----0----0----|
|------------------|-------------------|----------------------|

|-------------------|-------------------|----------------------|
|-------------------|-------------------|----------------------|
|--7----------------|--------------7----|--7----7----7----7----|
|--5----------------|--------------4----|--5----4----5----4----|
|--0----------------|--------------0----|--0----0----0----0----|
|-------------------|-------------------|----------------------|

|-------------------|------------------|-------------------|
|-------------------|------------------|-------------------|
|----------------2--|------------------|--------------7----|
|----------------2--|------------------|--------------4----|
|----------------0--|------------------|--------------0----|
|-------------------|------------------|-------------------|

|----------------------|-------------------|-------------------|
|----------------------|-------------------|-------------------|
|--7----7----7----7----|--7----------------|--------------7----|
|--5----4----5----4----|--5----------------|--------------4----|
|--0----0----0----0----|--0----------------|--------------0----|
|----------------------|-------------------|-------------------|

|----------------------|-------------------|-------------------|
|----------------------|-------------------|-------------------|
|--7----7----7----7----|--2----------------|--------------7----|
|--5----4----5----4----|--2----------------|--------------4----|
|--0----0----0----0----|--0----------------|--------------0----|
|----------------------|-------------------|-------------------|
|----------------------|-------------------|-------------------|
|----------------------|-------------------|-------------------|
|--7----7----7----7----|--7----------------|--------------7----|
|--5----4----5----4----|--5----------------|--------------4----|
|--0----0----0----0----|--0----------------|--------------0----|
|----------------------|-------------------|-------------------|

|----------------------|-------------------|
|----------------------|-------------------|
|--7----7----7----7----|--2----------------|
|--5----4----5----4----|--2----------------|
|--0----0----0----0----|--0----------------|
|----------------------|-------------------|

theme: (________________________________________________8x)
|---------------------|--------------------------|-------------------------|
|---------------------|--------------------------|-------------------------|
|--------2----2----2--|*-------------------------|-----------2----2----2--*|
|--------2----2----2--|*-------------2--4--------|--5--------2----2----2--*|
|--------0----0----0--|-----0--3--4--------3--0--|-----3--0--0----0----0---|
|---------------------|--------------------------|-------------------------|

|--2------3------2----|
|--3------3------3----|
|--2------0------2----|
|--0------0------0----|
|---------------------|
|---------------------|

|----------------2--|----2--3----3--2------|--3------2----2-------|
|----------------3--|----3--3----3--3------|--3------3----3-------|
|----------------2--|----2--0----0--2------|--0------2----2--2----|
|----------------0--|----0--0----0--0------|--0------0----0--2----|
|-------------------|----------------------|-----------------0----|
|-------------------|----------------------|----------------------|

|-------------------------|------------------------|-------------------------|
|-------------------------|------------------------|-------------------------|
|-------------------------|-----------2----2----2--|-------------------------|
|-------------2--4--------|--5--------2----2----2--|-------------2--4--------|
|----0--3--4--------3--0--|-----3--0--0----0----0--|----0--3--4--------3--0--|
|-------------------------|------------------------|-------------------------|

|------------------------|--2------3------2----|----------------2--|
|------------------------|--3------3------3----|----------------3--|
|-----------2----2----2--|--2------0------2----|----------------2--|
|--5--------2----2----2--|--0------0------0----|----------------0--|
|-----3--0--0----0----0--|---------------------|-------------------|
|------------------------|---------------------|-------------------|

|----2--3----3----2----|----3------2---------|-----------------------|
|----3--3----3----3----|----3------3---------|-----------------------|
|----2--0----0----2----|----0------2---------|-----------------------|
|----0--0----0----0----|----0------0---------|-----------------------|
|----------------------|---------------------|----4--5----4--5----4--|
|----------------------|------------------0--|----0-------0-------0--|
|-----------------------|-----------------------|------------------------|
|-----------------------|-----------------------|------------------------|
|-----------------------|-----------------------|------------------------|
|---------------5--6----|-----------------------|---------------5--6-----|
|--5----4--5------------|----4--5----4--5----4--|--5----4--5----------0--|
|-------0---------------|----0-------0-------0--|-------0----------------|

|-------------------------|------------------------|-------------------------|
|-------------------------|------------------------|-------------------------|
|-------------------------|-----------2----2----2--|-------------------------|
|-------------2--4--------|--5--------2----2----2--|-------------2--4--------|
|----0--3--4--------3--0--|-----3--0--0----0----0--|----0--3--4--------3--0--|
|-------------------------|------------------------|-------------------------|

|------------------------|-------------------------|------------------------|
|------------------------|-------------------------|------------------------|
|-----------2----2----2--|-------------------------|-----------2----2----2--|
|--5--------2----2----2--|-------------2--4--------|--5--------2----2----2--|
|-----3--0--0----0----0--|----0--3--4--------3--0--|-----3--0--0----0----0--|
|------------------------|-------------------------|------------------------|

|-------------------------|------------------------|-------------------|
|-------------------------|------------------------|-------------------|
|-------------------------|-----------2----2----0--|--2----------------|
|-------------2--4--------|--5--------2----2----0--|--2----------------|
|----0--3--4--------3--0--|-----3--0--0----0----0--|--0----------------|
|-------------------------|------------------------|-------------------|

Verse: See it...


|------------------|------------------|-------------------|-------------------|
|------------------|------------------|-------------------|-------------------|
|------------------|------------------|----------------0--|--2----------------|
|------------------|------------------|----------------0--|--2----------------|
|------------------|------------------|----------------0--|--0----------------|
|------------------|------------------|-------------------|-------------------|

heard it...
|-------------------|-------------------|----------------------|
|-------------------|-------------------|----7b8r7-------------|
|----------------0--|--2----------------|----7b8r7----------0--|
|----------------0--|--2----------------|-------------------0--|
|----------------0--|--0----------------|-------------------0--|
|-------------------|-------------------|----------------------|

|-------------------|----------------------|
|-------------------|----7b8r7-------------|
|--2----------------|----7b8r7----------0--|
|--2----------------|-------------------0--|
|--0----------------|-------------------0--|
|-------------------|----------------------|

to chorus:
|------------------------|-----------------------|--2------3------2----|
|-------7b8r7------------|-----------------------|--3------3------3----|
|--2----7b8r7------5-----|-----5-----------2--2--|--2------0------2----|
|--2------------------7--|--7-----7--------2--2--|--0------0------0----|
|--0---------------------|-----------------0--0--|---------------------|
|------------------------|-----------------------|---------------------|
Can't Hold Me Back.tab

Can't Hold Me Back


AC/DC

Intro Angus:
E|------------------------|----------------------------------|
B|------------12--13--15--|--13--12--13--15--13--12--13--15--|
G|------------12--12--12--|--12--12--12--12--12--12--12--12--|
D|------------------------|----------------------------------|
A|------------------------|----------------------------------|
E|------------------------|----------------------------------|

|--------------------------------|----------------------------------|
|--13--12--13--15----12--13--15--|--13--12--13--15--13--12--13--15--|
|--12--12--12--12----12--12--12--|--12--12--12--12--12--12--12--12--|
|--------------------------------|----------------------------------|
|--------------------------------|----------------------------------|
|--------------------------------|----------------------------------|

|--------------------------------|----------------------------------|
|--13--12------12----12--13--15--|--13--12--13--15--13--12--13--15--|
|--12--12--12--12----12--12--12--|--12--12--12--12--12--12--12--12--|
|--------------------------------|----------------------------------|
|--------------------------------|----------------------------------|
|--------------------------------|----------------------------------|
| with Malcolm: | |
|--------------------------------|----------------------------------|
|--------------------------------|----------------------------------|
|--------------------------------|----------------------------------|
|---------------------5---5---5--|---5---5---5---5---5---5---5---5--|
|---------------------5---7---8--|---7---5---7---8---7---5---7---8--|
|--------------------------------|----------------------------------|

|--------------------------------|----------------------------------|
|--13--12--13--15----12--13--15--|--13--12--13--15--13--12--13--15--|
|--12--12--12--12----12--12--12--|--12--12--12--12--12--12--12--12--|
|--------------------------------|----------------------------------|
|--------------------------------|----------------------------------|
|--------------------------------|----------------------------------|
| | |
|--------------------------------|----------------------------------|
|--------------------------------|----------------------------------|
|--------------------------------|----------------------------------|
|---5---5-------5-----5---5---5--|---5---5---5---5---5---5---5---5--|
|---7---5---5---5-----5---7---8--|---7---5---7---8---7---5---7---8--|
|--------------------------------|----------------------------------|
I got a big...
|-----------------------------|--------------------------|
|--13--12------12----3--5--6--|--5--3--5--6--5--3--5--6--|
|--12--12--12--12----0--0--0--|--0--0--0--0--0--0--0--0--|
|-----------------------------|--------------------------|
|-----------------------------|--------------------------|
|-----------------------------|--------------------------|
| | |
|-----------------------------|--------------------------|
|-----------------------------|--------------------------|
|-----------------------------|--------------------------|
|---5---5-------5----5--5--5--|--5--5--5--5--5--5--5--5--|
|---7---5---5---5----5--7--8--|--7--5--7--8--7--5--7--8--|
|-----------------------------|--------------------------|

I got a... Got a...


|-------------------------|--------------------------|-------------------------|
|--5--3-----5----3--5--6--|--5--3--5--6--5--3--5--6--|--5--3--0-------3--5--6--|
|--0--0--4--5----0--0--0--|--0--0--0--0--0--0--0--0--|--0--0--0--0----0--0--0--|
|-------------------------|--------------------------|-----------0-------------|
|-------------------------|--------------------------|-------------------------|
|-------------------------|--------------------------|-------------------------|
| | | |
|-------------------------|--------------------------|-------------------------|
|-------------------------|--------------------------|-------------------------|
|-------------------------|--------------------------|-------------------------|
|--5--5-----5----5--5--5--|--5--5--5--5--5--5--5--5--|--5--5-----5----5--5--5--|
|--7--5--5--3----5--7--8--|--7--5--7--8--7--5--7--8--|--7--5--5--5----5--7--8--|
|-------------------------|--------------------------|-------------------------|

Got a...
|--------------------------|-------------------------|--------------------------|
|--5--3--5--6--5--3--5--6--|--5--3-----5----3--5--6--|--5--3--5--6--5--3--5--6--|
|--0--0--0--0--0--0--0--0--|--0--0--4--5----0--0--0--|--0--0--0--0--0--0--0--0--|
|--------------------------|-------------------------|--------------------------|
|--------------------------|-------------------------|--------------------------|
|--------------------------|-------------------------|--------------------------|
| | | |
|--------------------------|-------------------------|--------------------------|
|--------------------------|-------------------------|--------------------------|
|--------------------------|-------------------------|--------------------------|
|--5--5--5--5--5--5--5--5--|--5--5-----5----5--5--5--|--5--5--5--5--5--5--5--5--|
|--7--5--7--8--7--5--7--8--|--7--5--5--3----5--7--8--|--7--5--7--8--7--5--7--8--|
|--------------------------|-------------------------|--------------------------|

to chorus: can't hold me back


|---------------------|----------|----------------------------------|
|--5--3---------------|----------|------12--13--15--13--12--13--15--|
|--0--0----0----------|----------|------12--12--12--12--12--12--12--|
|----------0----------|----------|----------------------------------|
|---------------------|----------|----------------------------------|
|----------3----------|----------|----------------------------------|
| | | F |
|---------------------|----------|----------------------------------|
|---------------------|----------|----------------------------------|
|---------------------|----------|----------------------------------|
|--5--5----5----------|----------|--10--10--10--10--10--10--10--10--|
|--7--5----5----------|----------|-- 8---8---8---8---8---8---8---8--|
|----------3----------|----------|----------------------------------|
can't hold me back
|----------------------------------|----------------------------------|
|--13--12--13--15------12--13--15--|--13--12--13--15--13--12--13--15--|
|--12--12--12--12------12--12--12--|--12--12--12--12--12--12--12--12--|
|----------------------------------|----------------------------------|
|----------------------------------|----------------------------------|
|----------------------------------|----------------------------------|
| C | G |
|----------------------------------|----------------------------------|
|----------------------------------|----------------------------------|
|----------------------------------|----------------------------------|
|--10--10--10--10--10--10--10--10--|---5---5---5---5---5---5---5---5--|
|---7---7---7---7---7---7---7---7--|---5---5---5---5---5---5---5---5--|
|----------------------------------|----------------------------------|

can't hold me back


|----------------------------------|----------------------------------|
|--13--12--13--15------12--13--15--|--13--12--13--15--13--12--13--15--|
|--12--12--12--12------12--12--12--|--12--12--12--12--12--12--12--12--|
|----------------------------------|----------------------------------|
|----------------------------------|----------------------------------|
|----------------------------------|----------------------------------|
| | F |
|----------------------------------|----------------------------------|
|----------------------------------|----------------------------------|
|----------------------------------|----------------------------------|
|---5---5---5---5---5---5---5---5--|--10--10--10--10--10--10--10--10--|
|---5---5---5---5---5---5---7---8--|--8---8---8---8---8---8---8---8---|
|----------------------------------|----------------------------------|

..attack can't hold me back


|----------------------------------|----------------------------------|
|--13--12--13--15------12--13--15--|--13--12--13--15--13--12--13--15--|
|--12--12--12--12------12--12--12--|--12--12--12--12--12--12--12--12--|
|----------------------------------|----------------------------------|
|----------------------------------|----------------------------------|
|----------------------------------|----------------------------------|
| C | G |
|----------------------------------|----------------------------------|
|----------------------------------|----------------------------------|
|----------------------------------|----------------------------------|
|--10--10--10--10--10--10--10--10--|---5---5---5---5---5---5---5---5--|
|---7---7---7---7---7---7---7---7--|---5---5---5---5---5---5---5---5--|
|----------------------------------|----------------------------------|

to verse: Got a...


|----------------------------------|--------------------------|
|--13--12------15-------3---5---6--|--5--3--5--6--5--3--5--6--|
|--12--12------12-------0---0---0--|--0--0--0--0--0--0--0--0--|
|----------------------------------|--------------------------|
|----------------------------------|--------------------------|
|----------------------------------|--------------------------|
| | |
|----------------------------------|--------------------------|
|----------------------------------|--------------------------|
|----------------------------------|--------------------------|
|---5---5---5---5---5---5---5---5--|--5--5--5--5--5--5--5--5--|
|---5---5---5---5---5---5---7---8--|--7--5--7--8--7--5--7--8--|
|----------------------------------|--------------------------|
after 2nd chorus:
|----------------------------------|------------------------------|
|--13--12--13--15--13--12--13--15--|--13--12--13--15-----------3--|
|--12--12--12--12--12--12--12--12--|--12--12--12--12-----------4--|
|----------------------------------|---------------------------5--|
|----------------------------------|---------------------------5--|
|----------------------------------|---------------------------3--|
| F | C |
|----------------------------------|------------------------------|
|----------------------------------|------------------------------|
|----------------------------------|------------------------------|
|--10--10--10--10--10--10--10--10--|--10--10--10--10--5--5--5--5--|
|---8---8---8---8---8---8---8---8--|---7---7---7---7--5--5--5--5--|
|----------------------------------|------------------3--3--3--3--|

on solo part play some chord changes G - C


Guitar Tabs eBooks on eBay!

AlmostFreeBusiness
eBay Store

The Highest Quality!


The Best Prices!
&
The Highest Customer Satisfaction!

Thank you for your interest!


Janie