Sei sulla pagina 1di 6

The Beatles - Here Comes The Sun

Intro 2x: D G A7

D
Here comes the sun
G E7
Here comes the sun and I say
D
It's all right

D
E|----2-----0-2--------------2-0------------|
B|----3--3----------3---------------3-------|
G|----2----------2--------2-------2----2----|
D|-0-------------0------0---------0----0----|
A|------------------------------------------|
E|------------------------------------------|

G A7
E|---------0-------------------0------------|
B|-0---3-------3---0-2-0-2-3-----3----------|
G|-------0---0-------0---0---0---0----------|
D|-------0---0-------2---2---2---2----------|
A|-------------------0---0---0---0----------|
E|---3--------------------------------------|

D
E|----2-----0-2--------------2-0------------|
B|----3--3----------3---------------3-------|
G|----2----------2--------2-------2----2----|
D|-0-------------0------0---------0----0----|
A|------------------------------------------|
E|------------------------------------------|

G A7
E|-----2---0--------------------------------|
B|-0-----------3----2-----------------------|
G|-------0---0------0-----------------------|
D|-------0---0------2-----------------------|
A|------------------0-----------------------|
E|---3--------------------------------------|

D
E|----2--0----2----------2-----0-2----------|
B|----3--3--3-3---3------3--3---------------|
G|----2-----2-2-2-2------2----------2-------|
D|-0--------0---0------0------------0-------|
A|------------------------------------------|
E|------------------------------------------|

G E7
E|---------2--0--2-----0--------------------|
B|-0-------0--0--0-----3--3-3------3--3-----|
G|-0-------0-----------1--1-1------1--1-----|
D|---------------------0--0-0------0--0-----|
A|---------------------2--2-2------2--2-----|
E|----3----------------0--0-0------0--0-----|

D
E|----2-----0-------------------------------|
B|----3-----3-----3-------------------------|
G|-2--2--2--2--2--2-------------------------|
D|-0-----0-----0----------------------------|
A|------------------------------------------|
E|------------------------------------------|

E|-------0-----0------0-----0---------------|
B|-----3-----3------3-----3----3p2----------|
G|-2/4-----2------0-----2----------4p2------|
D|------------------------------------------|
A|------------------------------------------|
E|------------------------------------------|

Primeira Parte e Refrão:

D
Little darling
G A7
It's been a long cold lonely winter
D
Little darling
G A7
It feels like years since it's been here

D
Here comes the sun
G E7
Here comes the sun and I say
D
It's all right

D A7

D
Little darling
G A7
The smiles returning to the faces
D
Little darling
G A7
It seems like years since it's been here

D
Here comes the sun
G E7
Here comes the sun and I say
D
It's all right

D A7

-
D
E|-----2-----0-2--------------2-0-----------|
B|---3-3--3--3-3-----3--------3-3----3------|
G|-2-2-2--2--2-2--2--2---2-2--2-2--2-2--2---|
D|-0---------0-0--0------0-0--0----0----0---|
A|------------------------------------------|
E|------------------------------------------|

G A7
E|---------0-------------------0------------|
B|-0---3---3---3---0-2-0-2-3---3-3----------|
G|-0---0-0---0-0-0---0-0-0-0-0-0-0-0--------|
D|---0---0---0---0---2-2-2-2-2---2-2--------|
A|-------------------0---0---0---0-0--------|
E|---3-------3---3--------------------------|

D
E|-----2-----0-2--------------2-0-----------|
B|---2-3--3--3-3-----3-----3--3-3----3------|
G|-2-2-2--2--2-2--2--2---2-2--2-2--2-2--2---|
D|-0-0------------0------0----0-0--0----0---|
A|------------------------------------------|
E|------------------------------------------|

G A7
E|-------2---0------------------------------|
B|-0-----0-------3----2--2-2--2-2-2-2-------|
G|-0---0-------0-0-0--0--0-0--0-0-0-0-------|
D|---0-0-------0---0--2--2-2--2-2-2-2-------|
A|--------------------0--0-0--0-0-0-0-------|
E|---3---------3---3------------------------|

D
E|----2--0----2----------2-----0-2----------|
B|----3--3--3-3---3----3-3--3--3-3----------|
G|-2--2-----2-2-2-2--2-2-2--2--2-2--2-------|
D|-0--------0---0----0-0-------0-0--0-------|
A|------------------------------------------|
E|------------------------------------------|

G E7
E|---------2--0---2----0---------0-0--0-0---|
B|-0-------0--0---0----3--3-3----3-3--3-3---|
G|-0--0-0--0----0---0--1--1-1----1-1--1-1---|
D|----0-0-------0---0--0--0-0----0-0--0-0---|
A|---------------------2--2-2----2-2--2-2---|
E|----3-3-------3---3--0--0-0----0-0--0-0---|

D
E|----2-----0-------------------------------|
B|----3-----3-----3-------------------------|
G|-2--2--2--2--2--2-2-----------------------|
D|-0-----0-----0----0-----------------------|
A|------------------------------------------|
E|------------------------------------------|

E|-------0-----0------0-----0---------------|
B|-----3-----3------3-----3----3p2----------|
G|-2/4-----2------0-----2----------4p2------|
D|------------------------------------------|
A|------------------------------------------|
E|------------------------------------------|

D A7
E|-----2-----0-2--------------------0-------|
B|---3-3--3--3-3-----3--0-2-0-2-3---3-------|
G|-2-2-2--2--2-2--2--2----0-0-0-0-0-0-0-0---|
D|-0---------0-0--0-------2-2-2-2-2---2-2---|
A|------------------------0---0---0---0-0---|
E|------------------------------------------|

D A7
E|-----2-----0-2----------------------------|
B|---3-3--3--3-3--------0-2-2---------------|
G|-2-2-2--2--2-2--2-------0-0---------------|
D|-0---------0-0--0-------2-2---------------|
A|------------------------0-0---------------|
E|------------------------------------------|

Segunda Parte:
(F C G/B G D A7)

F C G/B G
E|------------------------------------------|
B|-------------1----------------------------|
G|-----------2--------0------0--------------|
D|-----2---3--------2------0----------------|
A|-0-4------------3------2-------2----------|
E|-----------------------------3------------|

D A7
E|-----2-----0-2----------------------------|
B|---3-3--3--3-3--------0-2-2---------------|
G|-2-2-2--2--2-2--2-------0-0---------------|
D|-0---------0-0--0-------2-2---------------|
A|------------------------0-0---------------|
E|------------------------------------------|

F C G/B G
E|------------------------------------------|
B|-------------1----------------------------|
G|-----------2--------0------0--------------|
D|-----2---3--------2------0----------------|
A|-0-4------------3------2-------2----------|
E|-----------------------------3------------|

D A7
E|-----2-----0-2----------------------------|
B|---3-3--3--3-3-------2--0-2---------------|
G|-2-2-2--2--2-2--2----0--0-0---------------|
D|-0---------0-0--0----2--2-2---------------|
A|---------------------0--0-0---------------|
E|------------------------------------------|

A7
E|-0-0--0-0-0----0-0--0---0-0-0-------------|
B|-2-2--2-0-2----3-3--3---3-2-3-------------|
G|-0-0--0-0-0----0-0--0---0-0-0-------------|
D|-2-2--2-2-2----2-2--2---2-2-2-------------|
A|-0-0--0-0-0----0-0--0---0-0-0-------------|
E|------------------------------------------|

A7 A7(9)
E|-0-0--0--0-0-0----3-3--3---5-5------------|
B|-5-5--5--5-3-5----0-0--0---0-0------------|
G|-0-0--0--0-0-0----0-0--0---0-0------------|
D|-2-2--2--2-2-2----2-2--2---2-2------------|
A|-0-0--0--0-0-0----0-0--0---0-0------------|
E|------------------------------------------|

F C G/B G D A7
Sun, sun, sun, here it comes
F C G/B G D A7
Sun, sun, sun, here it comes
F C G/B G D A7
Sun, sun, sun, here it comes
F C G/B G D A7
Sun, sun, sun, here it comes
F C G/B G D A7
Sun, sun, sun, here it comes

A7 A9

Repete a Primeira Parte:

D
Little darling
G A7
I feel that ice is slowly melting
D
Little darling
G A7
It seems like years since it's been clear

Refrão Final:

D
E|-----2-----0-2----------------------------|
B|---3-3--3--3-3----------------------------|
G|-2-2-2--2--2-2--2-------------------------|
D|-0---------0-0--0-------------------------|
A|------------------------------------------|
E|------------------------------------------|

E|-------0-----0------0-----0---------------|
B|-----3-----3------3-----3----3p2----------|
G|-2/4-----2------0-----2----------4p2------|
D|------------------------------------------|
A|------------------------------------------|
E|------------------------------------------|

F C G/B G D
E|----------------------------------2-------|
B|-------------1--------------------3-------|
G|-----------2--------0------0------2-------|
D|---------3--------2------0--------0-------|
A|----------------3------2-------2----------|
E|-----------------------------3------------|

D
Here comes the sun
G E7
Here comes the sun and I say
D
It's all right

D
Here comes the sun
G E7
Here comes the sun and I say
D
It's all right
D F C G/B G D
It's all right

----------------- Acordes -----------------


A7 = X 0 2 0 2 0
A7(9) = 5 X 5 4 2 X
A9 = X 0 2 2 0 0
C = X 3 2 0 1 0
D = X X 0 2 3 2
E7 = 0 2 2 1 3 0
F = 1 3 3 2 1 1
G = 3 2 0 0 0 3
G/B = X 2 0 0 3 3