Sei sulla pagina 1di 9

New!

Advanced
Tab Generator
Screen-Shots.
0 • 9 A B C D E F G H I J K L M N O P Q R S T U V W X Y
Z Misc Tabs

Translate
New! Add tabs, corrections, instructions, video and image links (they will embed
on this page)
Click Here To Load Comments... (They show up on the bottom of page)

Gootar Chords | Gootab Player ::: | f | fleetwood_mac |


never_going_back_again.tab.php |

#-----------------------------PLEASE NOTE-------------------------------------#
#This OLGA file is the author's own work and represents their interpretation #
#of the song. You may only use this file for private study, scholarship, or #
#research. Remember to view this file in Courier, or some other monospaced #
#font. See http://www.olga.net/faq/ for more information. #
#-----------------------------------------------------------------------------#

[three versions: drop-D tuning, C wahine tuning, regular tuning]

Date: Mon, 28 Apr 2003 11:59:17 +0200


From: Phil Champ
Subject: f/fleetwood_mac/never_going_back_again.tab

Artist: Fleetwood Mac


Song : Never Going Back Again (Rumours 1977)
Tuning: Dropped D (DADGBE), capo 4th fret
Transcriber: Phil Champ (philchamp@yahoo.co.uk)

The second half of this tab is a version in C wahine tuning which contains
the same notes as the original, but is considerably easier to play.

Verse
����������������������������������������������������������������������������
E||-----------------------|--------5--------5--------|------------------------|
B||-------3---------2h3---|-----------3--------3-----|-------3p2--------5-----|
G||-------2---------2-----|-----2--------2--------2--|-------2----------2-----|
D||-------4---------2h4---|--------4-----------4-----|-------4p2--------5/4---|
A||------------0----------|--------------0-----------|-------------0----------|
D||--0--------------------|--0-----------------------|--0---------------------|

��������������������������������������������������
|-------5--------5--------|--2--------2--------2-----|
|--3-------3--------3-----|-----5--------5--------5--|
|-------------2-----------|--------2--------2--------|
|-------4-----------4h5---|--------5-----------5-----|
|-------------0-----------|--0-----------0-----------|
|--0----------------------|--------------------------|

����������������������������������������������������������������������������
|-----2--------2--------2--|------------------------|-----------5--------------
|--------5--------5--------|--3----------5/7--5-----|--3--------------------3--
|--2--------2--------2-----|-----2------------------|-----2-----------2--------
|--------5-----------5-----|--------4----5/7---5----|--4-----4-----------4-----
|--0-----------0-----------|---------------0--------|--------------0-----------
|--------------------------|--0---------------------|--0-----------------------

�������������������������������������������������������������������������
|-----------------------|--------5--------5--------|------------------------|
|-------3---------2h3---|-----------3--------3-----|-------3p2--------5-----|
|-------2---------2-----|-----2--------2--------2--|-------2----------2-----|
|-------4---------2h4---|--------4-----------4-----|-------4p2--------5/4---|
|------------0----------|--------------0-----------|-------------0----------|
|--0--------------------|--0-----------------------|--0---------------------|

���������������������������������������������������
|--------5--------5--------|--2--------2--------2-----|
|--3--------3--------3-----|-----5--------5--------5--|
|-----2--------2-----------|--------2--------2--------|
|--------4-----------4h5---|--------5-----------5-----|
|--------------0-----------|--0-----------0-----------|
|--0-----------------------|--------------------------|

������������������������������������������������������ 1.
��������������������������������������������������������������������������
|-----2--------2--------2--|------------------------|----------5-------------|
|--------5--------5--------|--3----------5/7---5----|--3---------------------|
|--2--------2--------2-----|-----2------------------|----------------2-------|
|--------5-----------5-----|--------4----5/7---5----|--4----4-----------4----|
|--0-----------0-----------|---------------0--------|-------------0----------|
|--------------------------|--0---------------------|--0---------------------|

���� 2.������������������ Chorus


��������������������������������������������
�||-------------------||-------10--------9--------|
�||--3----------------||-----------7--------------|
* ||--2----------------||-----------------------7--|
* ||--4----------------||-------7------------7-----|
�||-------------------||--------------0-----------|
�||--0----------------||--0-----------------------|

��������������������������������������������������������
|--10---------10---------10------|-------10----9-----------|
|------10---------10---------10--|----------------8--------|
|----------7----------7----------|--7-------------------7--|
|----------7-------------7-------|-------7-----------7-----|
|-----------------0--------------|-------------0-----------|
|--0-----------------------------|--0----------------------|

��������������������������������������������������������
|--10---------10---------10------|-------10-------9--------|
|------10---------10---------10--|-------------------------|
|----------7----------7----------|--7-------------------7--|
|----------7-------------7-------|-------7-----------7-----|
|-----------------0--------------|-------------0-----------|
|--0-----------------------------|--0----------------------|

�������������������������������������������������������
|--10---------10---------10------|------------------------|
|------10---------10---------10--|-------3-------2--------|
|----------7----------7----------|---------------2-----0--|
|----------7-------------7-------|-------4----------2-----|
|-----------------0--------------|--2---------------------|
|--0-----------------------------|------------4-----------|

�������������������������
|-----------5--------------||
|--3/2---------------2h3---||
|-----------------2--------||
|--------2-----------2h4---||
|--2p0---------0-----------||
|--------------------------||
#-----------------------------------------------------------------------------#

Artist: Fleetwood Mac


Song : Never Going Back Again (Rumours 1977)
Tuning: C wahine (CGDGBE), capo 6th fret
Date: Fri, 6 Sep 2002 17:37:09 +1000
From: Vu
Corrections: Phil Champ (philchamp@yahoo.co.uk)

Verse
������������������������������������������������������������������������������
E||-----------------------|--------3--------3--------|------------------------|
B||-------1---------0h1---|-----------1--------1-----|-------1p0--------3-----|
G||-------0---------0-----|-----0--------0--------0--|-------0----------------|
D||-------2---------0h2---|--------2-----------2-----|-------2p0--------3/2---|
G||------------0----------|--------------0-----------|-------------0----------|
C||--0--------------------|--0-----------------------|--0---------------------|

����������������������������������������������������
|-------3--------3--------|--0--------0--------0-----|
|--1-------1--------1-----|-----3--------3--------3--|
|-------------0-----------|--------0--------0--------|
|-------2-----------2h3---|--------3-----------3-----|
|-------------0-----------|--0-----------0-----------|
|--0----------------------|--------------------------|

������������������������������������������������������������������������������
|-----0--------0--------0--|------------------------|-----------3--------------
|--------3--------3--------|--1----------3/5---3----|--1--------------------1--
|--0--------0--------0-----|-----0------------------|-----0-----------0--------
|--------3-----------3-----|--------2----3/5---3----|--2-----2-----------2-----
|--0-----------0-----------|---------------0--------|--------------0-----------
|--------------------------|--0---------------------|--0-----------------------
���������������������������������������������������������������������������
|-----------------------|--------3--------3--------|------------------------|
|-------1---------0h1---|-----------1--------1-----|-------1h-0-------3-----|
|-------0---------0-----|-----0--------0--------0--|-------0----------------|
|-------2---------0h2---|--------2-----------2-----|-------2h-0-------3/2---|
|------------0----------|--------------0-----------|-------------0----------|
|--0--------------------|--0-----------------------|--0---------------------|

�����������������������������������������������������
|--------3--------3--------|--0--------0--------0-----|
|--1--------1--------1-----|-----3--------3--------3--|
|-----0--------0-----------|--------0--------0--------|
|--------2-----------2h3---|--------3-----------3-----|
|--------------0-----------|--0-----------0-----------|
|--0-----------------------|--------------------------|

������������������������������������������������������ 1.
����������������������������������������������������������������������������
|-----0--------0--------0--|------------------------|----------3-------------|
|--------3--------3--------|--1----------3/5---3----|--1---------------------|
|--0--------0--------0-----|-----0------------------|----------------0-------|
|--------3-----------3-----|--------2----3/5---3----|--2----2-----------2----|
|--0-----------0-----------|---------------0--------|-------------0----------|
|--------------------------|--0---------------------|--0---------------------|

���� 2.������������������ Chorus


������������������������������������������������������������������������
�||-------------------||-------8--------7--------|--8--------8--------8-----|
�||--1----------------||----------5--------------|-----8--------8--------8--|
*||--0----------------||----------------------5--|--------5--------5--------|
*||--2----------------||-------5-----------5-----|--------5-----------5-----|
�||-------------------||-------------0-----------|--------------0-----------|
�||--0----------------||--0----------------------|--0-----------------------|

����������������������������������������������������������������������������
|-------8----7-----------|--8--------8--------8-----|-------8-------7--------|
|---------------6--------|-----8--------8--------8--|------------------------|
|--5------------------5--|--------5--------5--------|--5------------------5--|
|-------5----------5-----|--------5-----------5-----|-------5----------5-----|
|------------0-----------|--------------0-----------|------------0-----------|
|--0---------------------|--0-----------------------|--0---------------------|

���������������������������������������������������
|--8--------8--------8-----|------------------------|
|-----8--------8--------8--|-------1-------0--------|
|--------5--------5--------|---------------0--------|
|--------5-----------5-----|-------2----------0h3---|
|--------------0-----------|--2---------------------|
|--0-----------------------|------------4-----------|

���������������������������
|-----------3--------------|
|--1p0---------------0h1---|
|-----------------0--------|
|--------0-----------0h2---|
|--2p0---------0-----------|
|--------------------------|

*** A Note from Mike Wallbridge (Feedback) ***


Hi,
I came across your version of Never Going Back Again in C Wahine tuning
(CGDGBE) and thought you'd be interested in some info. According to an
interview with Lindsey, he double-tracked the song on Rumours playing
it in Dropped-D tuning, which as you say is not quite so easy. In the
same interview he supplied the tab for the song and I transposed it
exactly into C Wahine tuning to see how it came out. A couple of days
later I found the enclosed site with exactly the same tuning and the
same notes that I had worked out. It is a fuller version that you have
at present and, I think, identical to what Lindsey played if in a
different tuning. Hope you enjoy it if you are still at this address.
If you ever manage to work out the tab for the very much slower and
different live version of the song I would appreciate you letting me know.

Cheers
Mike Wallbridge
***************

|================================|
| Tabbed by Vu Le on 27-6-2001 |
| v_le@hotmail.com |
| Comments? |
| Suggestions? |
|================================|

From: "Chan, Chris C. x7706"


Subject: NEVER GOING BACK AGAIN by Fleetwood Mac
Date: Mon, 30 Oct 95 10:30:00 EST

NEVER GOING BACK AGAIN by Fleetwood Mac

Try my version of this song. It's sounds close to the real thing (and it's
easy for me, a mediocre guitar player, to play). I included a bass guitar
part and two versions of the chorus accompanyment. The first version
is played in the open position (while capoed) and the alternate version is
played using barre chords.

CAPO 6th fret


(s = slide)
(. = beat)

***************************************************************************

[Intro]

C G C C G C
E |---------------|-----3------3-----|--------------|-----3------3----|
B |------1-----0--|-------1----------|-----1-----3--|-------1---------|
G |---------------|------------------|--------------|-----------------|
D |------2-----0--|-----2---------2--|-----2-----0--|-----2---------2-|
A |---3-----------|--3---------------|--3-----------|--3--------------|
E |---------3-----|----------3-------|--------3-----|----------3------|
. . . . . . . . . . . . . . . .

G7 C G C G
E |--0-----0-----0---|---0-----0-----0-|----------------|-------3----|
B |----3------3----3-|-----3-----3-----|-1-----3s-5--3--|-1----------|
G |------------------|-----------------|----------------|------------|
D |------3-------3---|-----3-------3---|----2--------0--|----2-----0-|
A |------------------|-----------------|-3--------------|-3----------|
E |--3--------3------|-3-------3-------|-------3--------|-------3----|
. . . . . . . . . . . . . . . .

[Verses]

C G C C G C
E ||------------------------|-----3------3----|------------|---3-----3---|
B ||--------1-----------0---|-------1---------|----1-----3-|-----1-------|
G ||.-----------------------|-----------------|------------|-------------|
D ||.-------2-----------0---|-----2---------2-|----2-----0-|---2-------2-|
A ||--3---------------------|-3---------------|-3----------|-3-----------|
E ||--------------3---------|----------3------|-------3----|-------3-----|
. . . . . . . . . . . . . . . .
1. She broke down ...
2. gain.
3. You don't know ...

G7 C G C G
E |--0-----0-----0---|---0-----0-----0-|----------------|-------3----|
B |----3------3----3-|-----3-----3-----|-1-----3s-5--3--|-1----------|
G |------------------|-----------------|----------------|------------|
D |------3-------3---|-----3-------3---|----2--------0--|----2-----0-|
A |------------------|-----------------|-3--------------|-3----------|
E |--3--------3------|-3-------3-------|-------3--------|-------3----|
. . . . . . . . . . . . . . . .

C G C C G C
E |--------------------|------3-------3-----|------------|----3------3----|
B |--------1--------0--|--------1-----------|----1-----3-|------1---------|
G |--------------------|--------------------|------------|----------------|
D |--------2--------0--|------2----------2--|----2-----0-|----2---------2-|
A |--3-----------------|-3------------------|-3----------|-3--------------|
E |--------------3-----|------------3-------|-------3----|---------3------|
. . . . . . . . . . . . . . . .
1. Made me see ...
2. gain.
3. Come down an...

G7 C G C G
E |--0-----0-----0---|---0-----0-----0-|----------------|-------3----|
B |----3------3----3-|-----3-----3-----|-1-----3s-5--3--|-1----------|
G |------------------|-----------------|----------------|------------|
D |------3-------3---|-----3-------3---|----2--------0--|----2-----0-|
A |------------------|-----------------|-3--------------|-3----------|
E |--3--------3------|-3-------3-------|-------3--------|-------3----|
. . . . . . . . . . . . . . . .

[Chorus (open chord version)]

C G C C G C
E |-------------|--------------------|--------------|--------------------|
B |----1-----0--|--1-----1------1----|----1------0--|--1-----1------1----|
G |-------------|----0------0-----0--|--------------|----0------0-----0--|
D |----2-----0--|------2------2------|----2------0--|------2------2------|
A |-3-----------|--3-----------------|-3------------|--3-----------------|
E |-------3-----|-----------3--------|--------3-----|-----------3--------|
. . . . . . . . . . . . . . . .
1. Been down one ...
2.
3. Been down ...

C G C Am Em
E |---------------|-------------------|-------------|
B |----1-------0--|--1-----1-----1----|----1----0---|
G |---------------|----0-----0-----0--|-------------|
D |----2-------0--|------2-----2------|----2--------|
A |-3-------------|--3----------------|-0---------2-|
E |---------3-----|----------3--------|-------0-----|
. . . . . . . . . . . .
1. times I'm
2.
3.

-----------------------
|1,2,3. |
| |
C G
E |--------------3------||
B |--1------------------||
G |--------------------.||
D |--------2-----------.||
A |--3---------------2--||
E |--------------3------||
. . . .
1. never going...
2.
3. never going...

[Ending]

C G C C G C
E |---------------|-----3------3-----|--------------|-----3------3----|
B |------1-----0--|-------1----------|-----1-----3--|-------1---------|
G |---------------|------------------|--------------|-----------------|
D |------2-----0--|-----2---------2--|-----2-----0--|-----2---------2-|
A |-3-------------|--3---------------|--3-----------|--3--------------|
E |---------3-----|----------3-------|--------3-----|----------3------|
. . . . . . . . . . . . . . . .
gain.

G7 C G C
E |--0-----0-----0---|---0-----0-----0-|----------------|--0------|
B |----3------3----3-|-----3-----3-----|-1-----3s-5--3--|--1------|
G |------------------|-----------------|----------------|--0------|
D |------3-------3---|-----3-------3---|----2--------0--|--2------|
A |------------------|-----------------|-3--------------|--3------|
E |--3--------3------|-3-------3-------|-------3--------|--0------|
. . . . . . . . . . . . .

***************************************************************************

Bass guitar - this part is a simple alternating bass.

[intro and verse]

C G C C G C
G |---------|---------|---------|---------|
D |---------|---------|---------|---------|
A |-----4---|-----4---|-----4---|-----4---|
E |-2-------|-2-------|-2-------|-2-------|
. . . . . . . . . . . . . . . .

G7 G7 C G C G
G |---------|---------|---------|---------|
D |---------|---------|---------|---------|
A |-4---4---|-4---4---|-----4---|-----4---|
E |---------|---------|-2-------|-2-------|
. . . . . . . . . . . . . . . .

[chorus]

C G C C G C
G |---------|---------|---------|---------|
D |---------|---------|---------|---------|
A |-----4---|-----4---|-----4---|-----4---|
E |-2-------|-2-------|-2-------|-2-------|
. . . . . . . . . . . . . . . .

C G C Am Em C
G |---------|---------|---------|---------|
D |---------|---------|---------|---------|
A |-----4---|-----4---|-6-------|-6---4---|
E |-2-------|-2-------|-----6---|---------|
. . . . . . . . . . . . . . . .

***************************************************************************

[Alternate chorus - if you can reach these frets on your guitar]

E |----8--------|--8------8------8---|----8--------|--8------8------8---|
B |---------12--|----9------9------9-|---------12--|----9------9------9-|
G |-------------|--------------------|-------------|--------------------|
D |---10----12--|------10-----10-----|---10----12--|------10-----10-----|
A |------10-----|--------------------|------10-----|--------------------|
E |-8-----------|--8--------8--------|-8-----------|--8--------8--------|
. . . . . . . . . . . . . . . .

E |----8--------|--8------8------8---|-------------|--------3-----|
B |---------12--|----9------9------9-|--------0----|--1-----------|
G |-------------|--------------------|---5---------|--------------|
D |---10----12--|------10-----10-----|-----------2-|-----2--------|
A |------10-----|--------------------|---7---------|--3--------2--|
E |-8-----------|--8--------8--------|-5----0------|--------3-----|
. . . . . . . . . . . . . . . .

Contact 2016 © goddess 401 Program Sales Gravityboy.com Gootab Player


Digg del.icio.us Facebook Google Reddit Technorati MySpace Twitter Slashdot

New! Add tabs, corrections, instructions, video and image links (they will embed
on this page)
Click Here To Load Comments... (They show up on the bottom of page)