Sei sulla pagina 1di 1

Mattius

------------------------------------------------
h- hammer on ----------7-9-7-----7---------------------------
p - pull off 6h8p6-8-9-------9-8-----------------------------
b - bend ------------------------7h8p7h8p7h8p7h8p7h8p7h8-
r - release ------------------------------------------------
------------------------------------------------
Intro - Guitar 1
--------------------------------------------- ------------------------------------------------
--------------------------------------------- ------------------------------------------------
--------------------------------------------- --9h10p9h10p9h10p9h10p9h10p9h10-10h11p10h11p10h-
---------------------------------------2-1--- ------------------------------------------------
-------4-6---------4-6--------4-6----------4- ------------------------------------------------
---4-7-----7---0-7-----7--7-7-----7--2------- ------------------------------------------------

Intro - Guitar 2 (comes in after guitar 1 plays through ------------------------------------------------


once)Work out the strumming for yourself - its very -----------------------7h8p7h8p7h8p7h8p7h8p7h8--
easy --11p10h11p10h11p10h11--------------------------
--------------------------------------------- ------------------------------------------------
--------------------------------------------- ------------------------------------------------
--------------------4------------------------ ------------------------------------------------
-------6-----2------4----4-------------------
-------6-----2------2----4------------------- ----------------------------------------------
-------4-----0-----------2------------------- ---9-9/11-11/12-12/14---16-16-p14-------------
----------------------------------16p13-------
Verse -palm muted ----------------------------------------------
--------------------------------------------- ----------------------------------------------
--------------------------------------------- ----------------------------------------------
-----------------4---------------------------
-----6------2----4----4----------------------
-----6------2----2----4---------------------- ----------------------------------------------
-----4------0---------2---------------------- -16-16-p14-------16b18r16p14----16b18r16p14---
-----------16p13-------------16-------------16
Interlude - with verse chords over top ----------------------------------------------
--------------------------------------------- ----------------------------------------------
--------------------------------------------- ----------------------------------------------
---------------------------------------------
---------------------------------------2-1---
-------4-6---------4-6--------4-6----------4- ---------------------------------------------
---4-7-----7---0-7-----7--7-7-----7--2------- -----------------------------------9-7-9-----
--16-15-15-13-13----13-----------------------
Chorus (same as verse, different strum) -----------------16----16-14-13--------------
------------------------------------------------ --------------------------------14-----------
------------------------------------------------ ---------------------------------------------
-----------------4------------------------------
------6-----2----4----4------------------------- And thats it, have fun.
------6-----2----2----4-------------------------
------4-----0---------2-------------------------

Solo - its not perfect, but enough to give you a lead


------------------------------------------------
--9-9-9-7---9-9-9-7---7-7-7---------------------
----------9---------9-------9-8-6-9h11p9-8h10p96
------------------------------------------------
------------------------------------------------
------------------------------------------------