Sei sulla pagina 1di 2

Am D7 G/F# Am D7 G Bm

e|-----------------------------------------0----- por tu felicidad


- Em -E
B|-------3-3-3------2-2h3-2-----3-3-3-3-----2---- a costa de la mia
-
G|-------2-2-2-----1-------1----2-2-2-2---2--2--- Am
- Pero si ahora tienes
D|----------------2---------2------------2------- D
- tan solo la mitad
A|-0-1-2--2-----0--------------2---2----0-------- G
- del gran amor que aun te tengo
E|----------------------------------------------- C Am
- puedes jurar que al que te quiere lo bendigo
Bm
Am D7 G/F# Am D7 Em quiero que seas feliz
e|----------------------------------------2---2-- Em -E
- aunque no sea conmigo
B|-------3-3-3------2-2h3-2-----3----3-3--2----2-
-
G|-------2-2-2-----1-------1----4----1-1--2-----
2- Interlude
D|----------------2---------2-------------4--4---
- Am D7 G/F# Am D7 G
A|-0-1-2--2-----0--------------2--2--2-2--4-4---- e|-----------------------------------------0-----
- --------------
E|----------------------------------------2------ B|-------3-3-3------2-2h3-2-----3-3-3-3-----2----
- --------------
G|-------2-2-2-----1-------1----2-2-2-2---2--2---
Am D7 G/F# Am D7 G --------------
e|-----------------------------------------0----- D|----------------2---------2------------2-------
- --------------
B|-------3-3-3------2-2h3-2-----3-3-3-3-----2---- A|-4-3-2--2-----0--------------2---2----0--------
- --------------
G|-------2-2-2-----1-------1----2-2-2-2---2--2--- E|-----------------------------------------------
- --------------
D|----------------2---------2------------2-------
- Am D7 G/F# Am D7 Em
A|-0-1-2--2-----0--------------2---2----0-------- Em7
- e|----------------------------------------2----2-
E|----------------------------------------------- ----2-2-2-2-2-
- B|-------3-3-3------2-2h3-2-----3----3-3--2-----
2----2-2-2-2-2-
Am D7 G/F# Am D7 Em G|-------2-2-2-----1-------1----4----1-1--2---2--
e|----------------------------------------2----- 2---3-3-3-3-3-
2- D|----------------2---------2-------------4--4---
B|-------3-3-3------2-2h3-2-----3----3-3--2----- -4--2-2-2-2-2-
2- A|-0-1-2--2-----0--------------2--2--2-2--4-4----
G|-------2-2-2-----1-------1----4----1-1--2----- --4-4-4-4-4-4-
2- E|----------------------------------------2------
D|----------------2---------2-------------4----- ----2-2-2-2-2-
4- Am
A|-0-1-2--2-----0--------------2--2--2-2--4-5-4- Y no es por eso
4- D G
E|----------------------------------------2----- que haya dejado de quererte un solo dia
2- C Am
Em Am estoy contigo aunque estes lejos de mi vida
A placer Bm
D Em Am por tu felicidad
puedes tomarte el tiempo necesario Em E
D G a costa de la mia
que por mi parte yo estare esperando
C Am
el dia en que te decidas a volver Pero si ahora tienes
Am B D
y ser feliz como antes fuimos tan solo la mitad
G
Em Am del gran amor que aun te tengo
Se muy bien C Am
D Em Am puedes jurar que al que te quiere lo bendigo
que como yo estaras sufriendo a diario Bm
D G quiero que seas feliz
la soledad de dos amantes que al dejarse Em
C Am aunque no sea conmigo
estan luchando cada quien
Bm
por no encontrarse Outro
Am
Y no es por eso e|-2----4-2-4p2-2p0----
D G B|-2-------------------
que haya dejado de quererte un solo dia G|-2---2---------------
C Am D|-4--4----------------
estoy contigo aunque estes lejos de mi vida A|-4-4-----------------
E|-2-------------------

Interessi correlati