Sei sulla pagina 1di 3

Artist: Tool

Song: The Pot

0:09 - Intro
G --------------------------------------------------------------
D -0-10p0-0-12p0-0-10p0-0-0---0--0-10p0-0-13--0-10p0-0-13-0-10--
A -------------------------------------------------------------- x8
D --------------------------------------------------------------

0:46 - Verse
Open notes played staccato - dont let any of the open notes ring out
G ------------------------------------------
D ------------------------------------------
A -------5----------5------------5--------3- x8
D -0--0-----0-0--0-----0-0--0-0-----0-0-3---

1:23
G -------7----------7-----------------------
D -------7----------7-----------------------
A -------5----------5------------5--------3- x2
D -0--0-----0-0--0-----0-0--0-0-----0-0-3---

1:32
G -----------------------------------------------------------
D -----------------------------------------------------------
A -----------------------------------------------------------
D -0-10p0-0-12p0-0-10p0-0-0--0-0-10p0-0-12--0-10p0-0-12-0-10-

G -----------------------------------------------------------
D -----------------------------------------------------------
A -----------------------------------------------------------
D -0-10p0-0-12p0-0-10p0-0-0--0-0-10p0-0-12--0-10p0-0-13-0-10-

G -----------------------------------------------------------
D -----------------------------------------------------------
A -----------------------------------------------------------
D -0-10p0-0-12p0-0-10p0-0-0--0-0-10p0-0-13--0-10p0-0-13-0-10-

1:45
Same timing as the verse but all D notes played on the bottom string.
G ------------------------------------------
D ------------------------------------------
A ----------------------------------------3-
D -0--0--0--0-0--0--0--0-0--0-0--0--0-0-3---

1:50 - Chorus
G -------------------------------------------
D -------------------------------------------
A ------5--------3---------------10-------5--
D -5--5----3-3-3---/-10-10-10-10----5-5--6-6-

G ------------------------------------------
D ------------------------------------------
A -------5----------5------------5--------3-
D -0--0-----0-0--0-----0-0--0-0-----0-0-3---

G -----------------------------------------------
D -----------------------------------------------
A ------5--------3---------------10--------------
D -5--5----3-3-3---/-10-10-10-10----13-13--13-13-

G ------------------------------------------
D ------------------------------------------
A -------5----------5------------5--------3- x4
D -0--0-----0-0--0-----0-0--0-0-----0-0-3---

2:21 Verse 2
G ------------------------------------------
D ------------------------------------------
A -------5----------5------------5--------3- x6
D -0--0-----0-0--0-----0-0--0-0-----0-0-3---

2:48
G -------
D --10~\-
A --10~\-
D -------
G ------------------------------------------
D ------------------------------------------
A -------5----------5------------5--------3-
D -0--0-----0-0--0-----0-0--0-0-----0-0-3---

2:57 - Chorus
G -------------------------------------------
D -------------------------------------------
A ------5--------3---------------10-------5--
D -5--5----3-3-3---/-10-10-10-10----5-5--6-6-

G ------------------------------------------
D ------------------------------------------
A -------5----------5------------5--------3-
D -0--0-----0-0--0-----0-0--0-0-----0-0-3---

G -----------------------------------------------
D -----------------------------------------------
A ------5--------3---------------10--------------
D -5--5----3-3-3---/-10-10-10-10----13-13--13-13-

3:11 - Breakdown
G ------------------------------------------------------------------------
D ------------------------------------------------------------------------
A ----------5-----------------5-----------------5-----------------5------- x2
D -0-0--5-7---7-5-0--2-2--5-7---7-5-0--3-3--5-7---7-5-0--5-5--5-7---7-5-0-

G ---------------------------------------------------------------
D ------------------------------------------9-9------------------
A ----------5-----------------5-------------7-7----------5-------
D -0-0--5-7---7-5-0--2-2--5-7---7-5-0--3-3------5-5--5-7---7-5-0-

G ---------------------------------------------------------------------------
D ---------------------------------------------------------------------------
A ----------5-----------------5-----------------5----------------------------
D -0-0--5-7---7-5-0--2-2--5-7---7-5-0--3-3--5-7---7-5-0--5-5--8-8--3-3--0~~~-

3:44 G --------------------h17--h15--h24-------------------------h17--h19-h17--h17---h19\-
D -h15-\14--\12-h14-----------------h14-h15-h14---------h14------------------h17-----
A ----------------------------------------------h15-h17------------------------------
D -----------------------------------------------------------------------------------

4:11
G --------------------------------
D -----------h7-7-----------------
A --------0h5-----5----8------7--- x3
D -0-0--0------------8---8--0---8-

G -----------------------------------
D -----------h7-7-----------------0~-
A --------0h5-----5----8------7------
D -0-0--0------------8---8--0---8----

4:33
G -----------------------------------------------------------
D -----------------------------------------------------------
A ----------------------------------------------------------- x2
D -0-10p0-0-12p0-0-10p0-0-0--0-0-10p0-0-13--0-10p0-0-13-0-10-

4:42
G --------------------------------------------------------------------------------
D --------------------------------------------------------------------------------
A --------------------------------------------------------------------------------
D -0--0--0--0---x-0--0--0---000000000000000000000000000000000000000000000-0~~~~~--

5:11
G -----------------------------------------
D -----------------------------------------
A -------5----------5------------5-------3- x3
D -0--0-----0-0--0-----0-0--0-0----0-0-3---

5:23 - Chorus
G -------------------------------------------
D -------------------------------------------
A ------5--------3---------------10-------5--
D -5--5----3-3-3---/-10-10-10-10----5-5--6-6-
G ------------------------------------------
D ------------------------------------------
A -------5----------5------------5--------3-
D -0--0-----0-0--0-----0-0--0-0-----0-0-3---

G -----------------------------------------------
D -----------------------------------------------
A ------5--------3---------------10--------------
D -5--5----3-3-3---/-10-10-10-10----13-13--13-13-

5:38 - Breakdown
G -----------------------------------------------------------------------
D -----------------------------------------------------------------------
A ----------5----------------5-----------------5-----------------5------- x2
D -0-0--5-7--7-5-0--2-2--5-7---7-5-0--3-3--5-7---7-5-0--5-5--5-7---7-5-0-

G ---------------------------------------------------------------------
D ---------------------------------------------------------------------
A ----------5-----------------5-----------------5----------------------
D -0-0--5-7---7-5-0--2-2--5-7---7-5-0--3-3--5-7---7-5-0--5-5--8-8--3-3-

5:59 - Ending
G -------------------------------------------------
D -------------------------------------------------
A -5---------3---------5-----------3-5-----------6- x4
D ---0-0-0-0---0-0-0-0---0-0-0-0-3-----0-0-0-0-8---