Sei sulla pagina 1di 5

"Cabron"

------------------------------------

from "By The Way"


Music by KiedisFleaFruscianteSmith
Warner Bros. Music 2002
<THIS IS NOT THE OFFICIAL TAB, IF YOU WANT ACCURACY,
BUY THE TAB BOOK!>

****************************************************************
Version 1 :
Transcripted by: jm2k

Capo 7th fret

Intro

-|----------3-----------0---
-|----------3-----------0---
-|-4-2-0----0-----------0---
-|-------2--0--5-4-2-0--2---
-|----------2-----------2---
-|----------3-----------0---

Verses
-|--3----0---
-|--3----0---
-|--0----0---
-|--0----2---
-|--2----2---
-|--3----0---
(keep strumming these two chords)

Chorus
-|--3----5---
-|--5----7---
-|--5----7---
-|--5----7---
-|--3----5---
-|--3----5---
same pattern, just different chords)

that is all.submit any comments of corrections to jm2k@hotmail.com

****************************************************************
****************************************************************
Version 2 :
Transcripted By Mike Gibbons

---------2------0-------------------------------------2-
-----------------------3--------2--------3----------3---
---------------------------------------------------2----
----------------------------------------------------0---
-----------------------------------------------------0--
-----------------------------------------------------0--
---------0-------------------------------------------2--
------------3-------2----------------------------3------
----------------------------2---------------------4-----
------------------------------------4-------------4-----
---------------------------------------------------2----
----------------------------------------------------2---

D Bm

cabron.......Cabron

G A

Im small but im strong....

D Bm

If you want me too

Main riff
4/4
Gtr I
|-2-0--------2--0----------2----|
|-----3-2-3--3----3-2------3----|
|------------2--------2----4----|
|------------0----------4--4----|
|------------0-------------2----|
|------------0-------------2----|

****************************************************************
****************************************************************
Version 3 :

Tab by my_smile_is_a_rifle@hotmail.com

Piste 1

E||---2----------------|--2-----------------||----7-------------7-----------9--|
B||---3----------------|--3-----------------||------8-------8-----8-------8-8--|
G||*--2----------------|--4----------------*||--------9---9---------9---9---9--|
D||*--0----------------|--4----------------*||--9-------9-----9-------9--------|
A||--------------------|--2-----------------||---------------------------------|
E||--------------------|--2-----------------||---------------------------------|

$ 5x
|---2-0--------2--2-2--2-2--2--|--0----------2--2-2--2-2--2---||
|-------3-2-3--3--3-3--3-3--3--|----3-2------3--3-3--3-3--3---||
|*-------------2--2-2--2-2--2--|--------2----4--4-4--4-4--4--*||
|*-------------0--0-0--0-0--0--|----------4--4--4-4--4-4--4--*||
|------------------------------|-------------2--2-2--2-2--2---||
|------------------------------|-------------2--2-2--2-2--2---||

se sont les bonne notes


-------------3-3--3--3-3--3--|--7-7--7-9-9--9-9--17-17-17-17-17-14----|
-------------3-3--3--3-3--3--|--8-8--8-8-8--8-8--------------------18-|
--4-2-0------4-4--4--4-4--4--|--9-9--9-9-9--9-9-----------------------|
--------4-5--5-5--5--5-5--5--|--9-9--9--------------------------------|
-------------5-5--5--5-5--5--|--7-7--7--------------------------------|
-------------3-3--3--3-3--3--|----------------------------------------|

mais pas le bon tempo desoler


---------------------17-17-17-17-14-------------|--3-3--3--3-3--3--7--7--7--|
--19-19-19-19-19-19-----------------18-19-19-19-|--3-3--3--3-3--3--8--8--8--|
------------------------------------------------|--4-4--4--4-4--4--9--9--9--|
------------------------------------------------|--5-5--5--5-5--5--9--9--9--|
------------------------------------------------|--5-5--5--5-5--5--7--7--7--|
------------------------------------------------|--3-3--3--3-3--3-----------|

idem ici
--9-9--9-9----17-17-17-17-17-17-17-17-|
--8-8--8-8----------------------------|
--9-9--9-9----------------------------|
--------------------------------------|
--------------------------------------|
--------------------------------------|

--19-19-21-21-19-19-14-14-14-14-14-14-14--17-17-|
------------------------------------------------|
------------------------------------------------|
------------------------------------------------|
------------------------------------------------|
------------------------------------------------|

--17-17-17-17-17-19-19-21-21-19-19-14-14-14-14-14-|
--------------------------------------------------|
--------------------------------------------------|
--------------------------------------------------|
--------------------------------------------------|
--------------------------------------------------|

--3-3--3--3-3--3--3----------|----------3--3--3-3-3--3-3--|
--3-3--3--3-3--3--3-3-3--3-3-|--3--3--3-3--3--3-3-3--3-3--|
--4-4--4--4-4--4--4-4-4--4-4-|--4--4--4-4--4--4-4-4--4-4--|
--5-5--5--5-5--5--5-4-4--4-4-|--4--4--4-5--5--5-5-5--5-5--|
--5-5--5--5-5--5--5-2-2--2-2-|--2--2--2-5--5--5-5-5--5-5--|
--3-3--3--3-3--5--3----------|----------3--3--3-3-3--3-3--|

* les riffs de fin


------------------------|--9/---14------------|----------------------|
--3-3--3--3-3-3---------|---------------------|--14/---12------------|
--4-4--4--4-4-4---------|---------------------|----------------------|
--4-4--4--4-4-4---------|---------------------|----------------------|
--2-2--2--2-2-2---------|---------------------|----------------------|
------------------------|---------------------|----------------------|
--9/---14------------|----------------------|---------------------|----------||
---------------------|--14/---12------------|--12/---8------------|----------||
---------------------|----------------------|---------------------|----------||
---------------------|----------------------|---------------------|----------||
---------------------|----------------------|---------------------|----------||
---------------------|----------------------|---------------------|----------||
* reprener depuis le repere($)

pour des explication ou des commentaire my_smile_is_a_rifle@hotmail.com

****************************************************************
****************************************************************
Version 4 :
Treanscribed by Chris Valente
Email: RedHotMetallica@aol.com

This is RIGHT! Capo 7th fret.


Intro and chorus is irrelevant to capo.

Intro

|---17----------14-------------
|---15----------15-------------
|---14----------16-------------
|---16----------16-------------
|---------------14-------------
|------------------------------

|------------------------------
|-------12------12----12---14--
|----------12-----12----12-14--
|----12--------------------14--
|-10----------10----10-----12--
|------------------------------

Verses

|-----------3-------------0----
|-----------3-------------0----
|--4-2-0----0--2-0--------0----
|--------4--0------4-0----2----
|-----------2-------------2----
|-----------3-------------0----

Chorus Part 1
|------------------
|--12---------14---
|--12---------14---
|--12---------14---
|--10---------12---
|------------------

Chorus Part 2

|-17-----14-12--------14-------
|-15-----------15-14--15-------
|-14------------------16-------
|-16------------------16-------
|---------------------14-------
|------------------------------