Sei sulla pagina 1di 3

THE POLICE - EVERY BREATH YOU TAKE

Tuning: standart(EADGBe)

[Intro]

Aadd9
E|-----------------------------------|
B|-----------------------------------|
G|-----------6---------------6-------|
D|-------9-----9---9-----9-----9---9-|
A|-----7---7-----7-----7---7-----7---|
E|---5---------------5---------------|

F#madd9
E|--------------------------------|
B|--------------------------------|
G|--------2---------------2-------|
D|----6-----6---6-----6-----6---6-|
A|--4---4-----4-----4---4-----4---|
E|2---------------2---------------|

Dadd9 D Eadd9 E
E|----------------------------------|
B|----------------------------------|
G|----9---7-----------11---9--------|
D|--7---7---7---7---9----9---9---9--|
A|5-----------5---7------------7----|
E|----------------------------------|

Aadd9
E|-----------------------------------|
B|-----------------------------------|
G|-----------6---------------6-------|
D|-------9-----9---9-----9-----9---9-|
A|-----7---7-----7-----7---7-----7---|
E|---5---------------5---------------|

[VERSE 1]

Aadd9(x2) F#madd9(x2)
Every breath you take and every move you make
Dadd9 Eadd9 F#madd9(x2)
Every bond you break every step you take I'll be watching you
Aadd9(x2) F#madd9(x2)
Every single day and every word you say
Dadd9 Eadd9 Aadd9(x2)
Every game you play every night you stay I'll be watching you

[CHORUS]

Dadd9 Cadd9
E|-------------------------------------------------------|
B|-------------------------------------------------------|
G|-----------------9---7-------------7---5---------------|
D|---------------7---7---7---7-----5---5---5---5---------|
A|-------------5-----------5-----3-----------3-----------|
E|-------------------------------------------------------|
..Oh can't you seeeeeee you beloong to

Aadd9
E|---------------------------------------------------|
B|---------------------------------------------------|
G|-----------6---------------6-----------------------|
D|-------9-----9---9-----9-----9---9-----------------|
A|-----7---7-----7-----7---7-----7-------------------|
E|---5---------------5-------------------------------|
meeee how my poooor heart
Badd9
E|-------------------------------------------|
B|-------------------------------------------|
G|-------------8---------------8-------------|
D|---------11----11--11----11----11--11------|
A|-------9---9-----9-----9---9-----9---------|
E|-----7---------------7---------------------|
aaaaaches with every steeep you

Eadd9 Eadd9
E|---------------------------------------------|
B|---------------------------------------------|
G|--------11--9-----------11--9-----9----------|
D|------9---9---9---9---9---9---9--------------|
A|----7-----------7---7-----------7------------|
E|---------------------------------------------|
take

[Verse 2]

Aadd9
Every move you make,
F#madd9
Every vow you break,
Dadd9
Every smile you fake
Eadd9
Every claim you stake,
F#madd9
I\\\'ll be watching you.

[Puente]

Eb
Since you've been gone, I've been lost without a trace,
F
I dream at night I can only see your face,
Eb
I look around but it's you I can't replace,
F
I feel so cold and I long for your embrace,
Eb G
I keep crying baby, baby please.

[Instrumental]

Aadd9 x2
F#madd9 x2
Dadd9 x1
Eadd9 x1
F#madd9 x2

Aadd9 x2
F#madd9 x2
Dadd9 x1
Eadd9 x1
Aadd9 x2

[Coro]

Dadd9 Cadd9
E|-------------------------------------------------------|
B|-------------------------------------------------------|
G|-----------------9---7-------------7---5---------------|
D|---------------7---7---7---7-----5---5---5---5---------|
A|-------------5-----------5-----3-----------3-----------|
E|-------------------------------------------------------|
..Oh can't you seeeeee you beloong to

Aadd9
E|---------------------------------------------------|
B|---------------------------------------------------|
G|-----------6---------------6-----------------------|
D|-------9-----9---9-----9-----9---9-----------------|
A|-----7---7-----7-----7---7-----7-------------------|
E|---5---------------5-------------------------------|
meee how my poor heart

Badd9
E|-------------------------------------------|
B|-------------------------------------------|
G|-------------8---------------8-------------|
D|---------11----11--11----11----11--11------|
A|-------9---9-----9-----9---9-----9---------|
E|-----7---------------7---------------------|
aaaches with every steeep you

Eadd9 Eadd9
E|---------------------------------------------|
B|---------------------------------------------|
G|--------11--9-----------11--9-----9----------|
D|------9---9---9---9---9---9---9--------------|
A|----7-----------7---7-----------7------------|
E|---------------------------------------------|
take

[Verso 3]

Aadd9(x2)
Every move you make,
F#madd9(x2)
Every vow you break,
Dadd9
Every smile you fake
Eadd9
Every claim you stake,
F#madd9(x2)
I\\\'ll be watching you.
Dadd9
Every move you make,
Eadd9
Every step you take
F#madd9(x4)
I'll be watching you
Aadd9(x2) F#madd9 Dadd9
I'll be watching you