Sei sulla pagina 1di 8

More Than Words Chords (ver 6) by Extreme

+
|
|
|
|
|
+

--------------------------------------------------------------------- +
Ultimate Guitar Tabs Archive - your #1 source for tabs!
|
http://www.ultimate-guitar.com/
|
|
Over 800,000 guitar, guitar pro and bass tabs! Also lessons, news,
|
columns and guitar forums!
|
--------------------------------------------------------------------- +

Artist: Extreme
Song: More Than Words
I hope you enjoy my interpretation of this song ... Garry Smythe
Please e mail me with any corrections or suggestions to:- g.smythe@sky.com
THIS SONG HAS BEEN TRANSPOSED INTO MANY KEYS AS LISTED BELOW
______________________________________________________________________________
MORE THAN WORDS
EXTREME
______________________________________________________________________________

INTRO:
G
G

Cadd9
Cadd9

Am7
Am7

C
C

D
D

G
G

VERSE1
G
Cadd9
Am7
C
D
G
Saying I love you, is not the words I want to hear from you
G
Cadd9
Am7
C
D
Em
It's not that I want you, not to say but if you only knew
Bm7
Am7
D
G
D/F#
Em
How,
ea sy,
it would be to show me
how
you
feel
Bm7
Am7
D7
G7
C
More than words, is all you have to do
to make it real
Cm
G
Em7
Then you wouldn't have to say, that you love me,
Am7
D7
'Cos I'd (single strum)
al - ready know(single strum)

BRIDGE:
G
What
C
More
G
What
C
Then

D/F#
would you do,

Em
Bm
C
my heart was torn in two
G/B Am7
D7
G
than words to show you feel,
that your love for me is real
D/F#
Em7
Bm7
C
would you say,
if I took those words away?
G/B
Am7
you couldn't make things
new
D7
G
Just by saying,(long strum)
I love you
if

Music interlude
La
G

di

da,
Cadd9

La di da
G
Cadd9

la di
da,
Am7
la di
Am7

di

dy
C

dy

dy
D

more than words


G

C(single strum) D(single strum)

tap guitar twice

VERSE 2
G
Cadd9
Now that I've tried to,
G
Cadd9

Am7
C
talk to you and make you
Am7
C

D
G
under - stand
D

Em

All that you have to do, is Close your eyes and just reach out your hands
Bm7
Am7
D
G
D/F#
Em
And,
touch me, hold me close don't ever
let
me
go
Bm7
Am7
More than words,

D7
G7
is all I ever needed you to

C
show

Cm
G
Em7
Am7
Then you wouldn't have to say, that you love me, Cos I'd

D7
all - ready

G
know

REPEAT BRIDGE AD LIB AND FADE


G
D/F#
What would you do,
C

if

my
G/B

Em
heart was
Am7

Bm
C
torn in two
D7

More than words to show you


feel,
that your love for me is real
G
D/F#
Em7
Bm7
C
What would you say,
if I took those words away?
C
G/B
Am7
Then you couldn't make things
new
D7
G
Just by saying (single strum) I love you
Music outro
La
G

di

La
G

di

La
G

di

La
G

di

da,
Cadd9

la di
da,
Am7

di

da,
Cadd9

la di
da,
Am7

di

da,
Cadd9

la di
da,
Am7

di

da,
Cadd9

la di
da,
Am7

di

dy

dy

C
dy

dy

more than words


G

dy

more than words


G

dy

more than words


G

dy

more than wo --- rds


G

D
dy

dy

D
dy

dy
D

dy
D

oo oo

Xxxxxxxxxxxxxxxxxxxxxxxxxxxxxxxxxxxxxxxxxxxxxxxxxxxxxxxxxxxxxxxxxxxxxxxxxxxxxx
INTRO:
A
A

Dadd9
Dadd9

Bm7
Bm7

D
D

E
E

A
A

VERSE1
A
Dadd9
Bm7
D
E
A
Saying I love you, is not the words I want to hear from you
A
Dadd9
Bm7
D
E
F#m
It's not that I want you, not to say but if you only knew
C#m7
Bm7
E
A
E/G#
F#m
How,
ea sy,
it would be to show me
how
you
feel
C#m7
Bm7
E7
A7
D
More than words, is all you have to do
to make it real
Dm
A
F#m7
Then you wouldn't have to say, that you love me,
Bm7
E7
'Cos I'd (single strum)
al - ready know(single strum)

BRIDGE:
A
What
D
More
A
What
D
Then

E/G#
would you do,

F#m
C#m
D
my heart was torn in two
A/C# Bm7
E7
A
than words to show you feel,
that your love for me is real
E/G#
F#m7
C#m7
D
would you say,
if I took those words away?
A/C#
Bm7
you couldn't make things
new
if

E7
Just by saying,(long strum)

A
I love you

Music interlude
La
A

di

da,
Dadd9

La di da
G
Cadd9

la di
da,
Bm7
la di
Am7

di

dy

dy

dy

more than words


A

C(single strum) D(single strum)

tap guitar twice

VERSE 2
A
Dadd9
Now that I've tried to,
A
Dadd9

Bm7
D
talk to you and make you
Bm7
D

E
A
under - stand
E

F#m

All that you have to do, is Close your eyes and just reach out your hands
C#m7 Bm7
E
A
E/G#
F#m
And,
touch me, hold me close don't ever
let
me
go
C#m7
Bm7
More than words,

E7
A7
is all I ever needed you to

D
show

Dm
A
F#m7
Bm7
Then you wouldn't have to say, that you love me, Cos I'd

E7
all - ready

A
know

REPEAT BRIDGE AD LIB AND FADE


A
What
D
More
A
What
D
Then

E/G#
would you do,

F#m
C#m
D
my heart was torn in two
A/C#
Bm7
E7
A
than words to show you
feel,
that your love for me is real
E/G#
F#m7
C#m7
D
would you say,
if I took those words away?
A/C#
Bm7
you couldn't make things
new
E7
A
Just by saying (single strum) I love you
if

Music outro
La
A

di

La
A

di

La
A

di

La
A

di

da,
Dadd9

la di
da,
Bm7

di

da,
Dadd9

la di
da,
Bm7

di

da,
Dadd9

la di
da,
Bm7

di

da,
Dadd9

la di
da,
Bm7

di

dy

dy

D
dy

dy

more than words


A

dy

more than words


A

dy

more than words


A

dy

more than wo --- rds


A

E
dy

dy

E
dy

dy
E

dy
E

oo oo

Xxxxxxxxxxxxxxxxxxxxxxxxxxxxxxxxxxxxxxxxxxxxxxxxxxxxxxxxxxxxxxxxxxxxxxxxxxxxxx
INTRO:
C
C

Fadd9
Fadd9

Dm7
Dm7

F
F

G
G

C
C

VERSE1
C
Fadd9
Dm7
F
G
C
Saying I love you, is not the words I want to hear from you
C
Fadd9
Dm7
F
G
Am
It's not that I want you, not to say but if you only knew
Em7
Dm7
G
C
G/B
Am
How,
ea sy,
it would be to show me
how
you
feel
Em7
Dm7
G7
C7
F

More than words, is all you have to do


to make it real
Fm
C
Am7
Then you wouldn't have to say, that you love me,
Dm7
G7
'Cos I'd (single strum)
al - ready know(single strum)

BRIDGE:
C
What
F
More
C
What
F
Then

G/B
would you do,

Am
Em
F
my heart was torn in two
C/E Dm7
G7
C
than words to show you feel,
that your love for me is real
G/B
Am7
Em7
F
would you say,
if I took those words away?
C/E
Dm7
you couldn't make things
new
G7
C
Just by saying,(long strum)
I love you
if

Music interlude
La
C

di

da,
Fadd9

La di da
G
Cadd9

la di
da,
Dm7
la di
Am7

di

dy

dy

dy
G

more than words


C

C(single strum) D(single strum)

tap guitar twice

VERSE 2
C
Fadd9
Dm7
F
G
C
Now that I've tried to,
talk to you and make you
under - stand
C
Fadd9
Dm7
F
G
Am
All that you have to do, is Close your eyes and just reach out your hands
Em7
Dm7
G
C
G/B
Am
And,
touch me, hold me close don't ever
let
me
go
Em7
Dm7
More than words,

G7
C7
is all I ever needed you to

F
show

Fm
C
Am7
Dm7
Then you wouldn't have to say, that you love me, Cos I'd

G7
all - ready

C
know

REPEAT BRIDGE AD LIB AND FADE


C
What
F
More
C
What
F
Then

G/B
would you do,

Am
Em
F
my heart was torn in two
C/E
Dm7
G7
C
than words to show you
feel,
that your love for me is real
G/B
Am7
Em7
F
would you say,
if I took those words away?
C/E
Dm7
you couldn't make things
new
G7
C
Just by saying (single strum) I love you
if

Music outro
La
C

di

La
C

di

La
C

di

La
C

di

da,
Fadd9

la di
da,
Dm7

di

da,
Fadd9

la di
da,
Dm7

di

da,
Fadd9

la di
da,
Dm7

di

da,
Fadd9

la di
da,
Dm7

di

dy

dy

F
dy

dy

more than words


C

dy

more than words


C

dy

more than words


C

dy

more than wo --- rds


C

G
dy

dy

G
dy

dy
G

dy
G

oo oo

Xxxxxxxxxxxxxxxxxxxxxxxxxxxxxxxxxxxxxxxxxxxxxxxxxxxxxxxxxxxxxxxxxxxxxxxxxxxxxx

INTRO:
D
D

Gadd9
Gadd9

Em7
Em7

G
G

A
A

D
D

VERSE1
D
Gadd9
Em7
G
A
D
Saying I love you, is not the words I want to hear from you
D
Gadd9
Em7
G
A
Bm
It's not that I want you, not to say but if you only knew
F#m7
Em7
A
D
A/C#
Bm
How,
ea sy,
it would be to show me
how
you
feel
F#m7
Em7
A7
D7
G
More than words, is all you have to do
to make it real
Gm
D
Bm7
Then you wouldn't have to say, that you love me,
Em7
A7
'Cos I'd (single strum)
al - ready know(single strum)

BRIDGE:
D
What
G
More
D
What
G
Then

A/C#
would you do,

Bm
F#m
G
my heart was torn in two
D/F# Em7
A7
D
than words to show you feel,
that your love for me is real
A/C#
Bm7
F#m7
G
would you say,
if I took those words away?
D/F#
Em7
you couldn't make things
new
A7
D
Just by saying,(long strum)
I love you
if

Music interlude
La
D

di

da,
Gadd9

La di da
G
Cadd9

la di
da,
Em7
la di
Am7

di

dy
G

dy

dy
A

more than words


D

C(single strum) D(single strum)

tap guitar twice

VERSE 2
D
Gadd9
Em7
G
A
D
Now that I've tried to,
talk to you and make you
under - stand
D
Gadd9
Em7
G
A
Bm
All that you have to do, is Close your eyes and just reach out your hands
F#m7 Em7
A
D
A/C#
Bm
And,
touch me, hold me close don't ever
let
me
go
F#m7
Em7
More than words,

A7
D7
is all I ever needed you to

G
show

Gm
D
Bm7
Em7
Then you wouldn't have to say, that you love me, Cos I'd

A7
all - ready

REPEAT BRIDGE AD LIB AND FADE


D
What
G
More
D
What
G
Then

A/C#
would you do,

Bm
F#m
G
my heart was torn in two
D/F#
Em7
A7
D
than words to show you
feel,
that your love for me is real
A/C#
Bm7
F#m7
G
would you say,
if I took those words away?
D/F#
Em7
you couldn't make things
new
A7
D
Just by saying (single strum) I love you
Music outro

if

D
know

La
D

di

La
D

di

La
D

di

La
D

di

da,
Gadd9

la di
da,
Em7

di

da,
Gadd9

la di
da,
Em7

di

da,
Gadd9

la di
da,
Em7

di

da,
Gadd9

la di
da,
Em7

di

dy

dy

dy

more than words


D

dy

more than words


D

dy

more than words


D

dy

more than wo --- rds


D

A
dy

dy

A
dy

dy

A
dy

dy

oo oo

Xxxxxxxxxxxxxxxxxxxxxxxxxxxxxxxxxxxxxxxxxxxxxxxxxxxxxxxxxxxxxxxxxxxxxxxxxxxxxx
END
+--------------------------------------------------------------------------+
| This file is the author's own work and represents their interpretation
|
| of the song. You may only use this file for private study, scholarship, |
| or research.
|
+--------------------------------------------------------------------------+
Ultimate-Guitar.Com 2014
Show/hide chords diagrams

Add more chord diagrams to the list:

Gm
E
B
G
D
A
E

|-X-|---|---|---|---|
|-X-|---|---|---|---|
|-X-|---|---|---|---|
|-X-|---|-4-|---|---|
|-X-|---|-3-|---|---|
|-X-|---|---|---|---|

Gadd9
o
o
o
o
o
o

E
B
G
D
A
E

|---|---|-2-|---|---|
|---|---|---|---|---|
|---|---|---|---|---|
|---|---|---|---|---|
|---|---|---|---|---|
|---|---|-1-|---|---|

C/E
o
o
o
o
o
o

E
B
G
D
A
E

|---|---|---|---|---|
|-1-|---|---|---|---|
|---|---|---|---|---|
|---|-2-|---|---|---|
|---|---|-3-|---|---|
|---|---|---|---|---|

o
o
o
o
o
o

3 fr.

Fm
E
B
G
D
A
E

|-X-|---|---|---|---|
|-X-|---|---|---|---|
|-X-|---|---|---|---|
|-X-|---|-4-|---|---|
|-X-|---|-3-|---|---|
|-X-|---|---|---|---|

C7
o
o
o
o
o
o

E
B
G
D
A
E

1 fr.

o
o
o
o
o
x

E
B
G
D
A
E

|---|---|---|---|---|
|-1-|---|---|---|---|
|---|-3-|---|---|---|
|---|-2-|---|---|---|
|---|---|---|---|---|
|---|---|---|---|---|

o
o
o
o
o
x

3 fr.

F
E
B
G
D
A
E

|-X-|---|---|---|---|
|-X-|---|-4-|---|---|
|-X-|---|---|---|---|
|-X-|---|-3-|---|---|
|-X-|---|---|---|---|
|---|---|---|---|---|

Am

|-X-|---|---|---|---|
|-X-|---|---|---|---|
|-X-|-2-|---|---|---|
|-X-|---|-4-|---|---|
|-X-|---|-3-|---|---|
|-X-|---|---|---|---|

Dm7
o
o
o
o
o
o

E
B
G
D
A
E

|-X-|---|---|---|---|
|-X-|---|---|---|---|
|---|-2-|---|---|---|
|---|---|---|---|---|
|---|---|---|---|---|
|---|---|---|---|---|

Fadd9
o
o
o
o
x
x

E
B
G
D
A
E

|---|---|-4-|---|---|
|-1-|---|---|---|---|
|---|-2-|---|---|---|
|---|---|-3-|---|---|
|---|---|---|---|---|
|---|---|---|---|---|

o
o
o
o
x
x

1 fr.

1 fr.

A/C#
E
B
G
D
A
E

|-X-|---|---|-4-|---|
|-X-|---|---|---|---|
|-X-|---|---|---|---|
|-X-|---|---|---|---|
|---|---|-3-|---|---|
|---|---|---|---|---|

C#m
o
o
o
o
o
x

E
B
G
D
A
E

2 fr.

|-X-|---|---|---|---|
|-X-|-2-|---|---|---|
|-X-|---|-4-|---|---|
|-X-|---|-3-|---|---|
|-X-|---|---|---|---|
|---|---|---|---|---|

E
B
G
D
A
E

o
o
o
o
o
o

|-1-|---|---|---|---|
|---|---|-3-|---|---|
|---|-2-|---|---|---|
|---|---|---|---|---|
|---|---|---|---|---|
|---|---|---|---|---|

o
o
o
o
x
x

E
B
G
D
A
E

|---|---|---|---|---|
|---|-2-|---|---|---|
|---|---|---|---|---|
|---|-1-|---|---|---|
|---|---|---|---|---|
|---|---|---|---|---|

|-X-|---|---|---|---|
|-X-|-2-|---|---|---|
|-X-|---|---|---|---|
|-X-|---|-3-|---|---|
|-X-|---|---|-4-|---|
|-X-|---|---|---|---|

E7
o
o
o
o
o
x

E
B
G
D
A
E

|---|---|---|---|---|
|---|---|---|---|---|
|-1-|---|---|---|---|
|---|---|---|---|---|
|---|-2-|---|---|---|
|---|---|---|---|---|

C#m7
o
o
o
o
o
o

E
B
G
D
A
E

|---|---|---|---|---|
|---|---|---|---|---|
|-1-|---|---|---|---|
|---|-2-|---|---|---|
|---|---|---|-4-|---|
|---|---|---|---|---|

o
o
o
o
o
o

F#m
o
o
o
o
o
x

E
B
G
D
A
E

4 fr.

|-X-|---|---|---|---|
|-X-|---|---|---|---|
|-X-|---|---|---|---|
|-X-|---|-4-|---|---|
|-X-|---|-3-|---|---|
|-X-|---|---|---|---|

o
o
o
o
o
o

2 fr.

E
E
B
G
D
A
E

|---|---|---|---|---|
|---|-4-|---|---|---|
|---|-3-|---|---|---|
|---|-2-|---|---|---|
|---|---|---|---|---|
|---|-1-|---|---|---|

A7

E/G#
E
B
G
D
A
E

o
o
o
o
o
x

4 fr.

Dm
E
B
G
D
A
E

F#m7

|---|---|---|---|---|
|---|---|---|---|---|
|-1-|---|---|---|---|
|---|-3-|---|---|---|
|---|-2-|---|---|---|
|---|---|---|---|---|

Dadd9
o
o
o
o
o
o

E
B
G
D
A
E

|-X-|---|---|---|---|
|-X-|-2-|---|---|---|
|-X-|---|---|---|---|
|-X-|---|---|---|---|
|---|---|---|-4-|---|
|---|---|---|---|---|

A
o
o
o
o
o
x

E
B
G
D
A
E

|---|---|---|---|---|
|---|-3-|---|---|---|
|---|-2-|---|---|---|
|---|-1-|---|---|---|
|---|---|---|---|---|
|---|---|---|---|---|

o
o
o
o
o
x

2 fr.

G/B
E
B
G
D
A
E

|---|---|-2-|---|---|
|---|---|---|---|---|
|---|---|---|---|---|
|---|---|---|---|---|
|---|-1-|---|---|---|
|---|---|---|---|---|

Bm
o
o
o
o
o
x

E
B
G
D
A
E

|-X-|---|---|---|---|
|-X-|-2-|---|---|---|
|-X-|---|-4-|---|---|
|-X-|---|-3-|---|---|
|-X-|---|---|---|---|
|---|---|---|---|---|

Em7
o
o
o
o
o
x

E
B
G
D
A
E

|---|---|---|---|---|
|---|---|---|---|---|
|---|---|---|---|---|
|---|---|---|---|---|
|---|-1-|---|---|---|
|---|---|---|---|---|

o
o
o
o
o
o

2 fr.

Cm
E
B
G
D
A
E

|-X-|---|---|---|---|
|-X-|-2-|---|---|---|
|-X-|---|-4-|---|---|
|-X-|---|-3-|---|---|
|-X-|---|---|---|---|
|---|---|---|---|---|

G7
o
o
o
o
o
x

E
B
G
D
A
E

|-1-|---|---|---|---|
|---|---|---|---|---|
|---|---|---|---|---|
|---|---|---|---|---|
|---|-2-|---|---|---|
|---|---|-3-|---|---|

D7
o
o
o
o
o
o

E
B
G
D
A
E

|---|-3-|---|---|---|
|-1-|---|---|---|---|
|---|-2-|---|---|---|
|---|---|---|---|---|
|---|---|---|---|---|
|---|---|---|---|---|

o
o
o
o
x
x

3 fr.

D/F#
E
B
G
D
A
E

|-X-|---|---|---|---|
|-X-|-2-|---|---|---|
|-X-|---|---|---|---|
|-X-|---|-3-|---|---|
|-X-|---|---|-4-|---|
|-X-|---|---|---|---|

Bm7
o
o
o
o
o
o

E
B
G
D
A
E

|---|-3-|---|---|---|
|---|---|---|---|---|
|---|-2-|---|---|---|
|---|---|---|---|---|
|---|-1-|---|---|---|
|---|---|---|---|---|

Em
o
o
o
o
o
x

E
B
G
D
A
E

|---|---|---|---|---|
|---|---|---|---|---|
|---|---|---|---|---|
|---|-2-|---|---|---|
|---|-1-|---|---|---|
|---|---|---|---|---|

o
o
o
o
o
o

2 fr.

D
E
B
G
D
A
E

|---|-2-|---|---|---|
|---|---|-3-|---|---|
|---|-1-|---|---|---|
|---|---|---|---|---|
|---|---|---|---|---|
|---|---|---|---|---|

C
o
o
o
o
x
x

E
B
G
D
A
E

Cadd9
E
B
G
D
A
E

|---|---|---|---|---|
|-1-|---|---|---|---|
|---|---|---|---|---|
|---|---|---|---|---|
|---|---|-3-|---|---|
|---|---|---|---|---|

|---|---|---|---|---|
|-1-|---|---|---|---|
|---|---|---|---|---|
|---|-2-|---|---|---|
|---|---|-3-|---|---|
|---|---|---|---|---|

Am7
o
o
o
o
o
x

G
o
o
o
o
o
x

E
B
G
D
A
E

|---|---|-3-|---|---|
|---|---|---|---|---|
|---|---|---|---|---|
|---|---|---|---|---|
|---|-1-|---|---|---|
|---|---|-2-|---|---|

o
o
o
o
o
o

E
B
G
D
A
E

|---|---|---|---|---|
|-1-|---|---|---|---|
|---|---|---|---|---|
|---|-2-|---|---|---|
|---|---|---|---|---|
|---|---|---|---|---|

o
o
o
o
o
x