Sei sulla pagina 1di 7

Torn Chords by Natalie Imbruglia

+
|
|
|
|
|
+

--------------------------------------------------------------------- +
Ultimate Guitar Tabs Archive - your #1 source for tabs!
|
http://www.ultimate-guitar.com/
|
|
Over 800,000 guitar, guitar pro and bass tabs! Also lessons, news,
|
columns and guitar forums!
|
--------------------------------------------------------------------- +

Artist: Natalie Imbruglia


Song: Torn
#----------------------------------PLEASE NOTE---------------------------------#
#This file is the author's own work and represents their interpretation of the #
#song. You may only use this file for private study, scholarship, or research. #
#------------------------------------------------------------------------------#
Date: Fri, 07 Nov 1997 12:19:51 -0800
From: MardiGras
Subject: Torn by Natalie Imbruglia
27/10/97
Torn - Natalie Imbruglia
----------------------------*Single Version*
[Transcribed by TNT SHWE]

Notes:
Play the rhythm acoustically and the lead section (reminiscent
of the lead sections from James' "She's A Star") in the Coda electrically.
I could tell you what the settings are, but since all amps differ, it
would be a better idea to go and tra in yourself to find these settings
yourself! The chords in brackets are the transition chords and are played
for a much shorter period than the chords out of brackets. Transition
chords are used to "musically fuse" two chords together!

Recommended Chord Positions:


Am
Bb
C
Dm
F
Gm

xO221O
x13331
x32O1O
xxO231
133211
355333

Intro:
F

Bb

Gm

Verse 1:
F

Am
I thought I saw a man brought to life
Bb
He was warm, he came around like he was dignified

He showed me what it was to cry

Am
Well you couldn't be that man I adored

You don't seem to know


Bb
Don't seem to care what your heart is for

But I don't know him anymore

Pre Chorus 1:
Dm
There's nothing where he used to lie
C
My conversation has run dry
Am
That's what's going on
C
Nothing's fine
F
I'm torn

Chorus 1:
(F)

C
Dm
I'm all out of faith, this is how I feel
Bb
F
I'm cold and I am shamed, lying naked on the floor
C
Dm
Illusion never changed, into something real
Bb
F
I'm wide awake and I can see, the perfect sky is torn
C
Dm
You're a little late, I'm already torn

(C)

Bb

Verse 2:
F

Am
So I guess the fortune teller's right
Bb
I should have seen just what was there and not some holy light

But you crawl beneath my veins and now

Pre Chorus 2:
(Same chords and rhythm as Pre Chorus 1)

I don't care, I have no luck


I don't miss it all that much

There's just so many things


That I can't touch
I'm torn

Chorus 2:
(Same as Chorus 1)

Bridge:
Dm (C)
Torn...

Bb

Dm
Ooooh...

F
Hoo ooooh...

C
Ooooh

Pre Chorus 3:
(Same chords and rhythm as Pre Choruses 1 and 2)

There's nothing where he used to lie


My inspiration has run dry
That's what's going on
Nothing's right
I'm torn

Chorus 3:
(F)

C
Dm
I'm all out of faith, this is how I feel
Bb
F
I'm cold and I am shamed, lying naked on the floor
C
Dm
Illusion never changed, into something real
Bb
F
I'm wide awake and I can see, the perfect sky is torn
C
Dm
I'm all out of faith, this is how I feel
Bb
F
I'm cold and I am shamed, bound and broken on the floor
C
Dm
You're a little late, I'm already torn

Outro:
Dm
C
Torn...

Ooh...

Outro/Solo:

[much wailing]

(C)

Bb

(Same rhythm as Choruses)

F
E|
B|
G|
D|
A|
E|

C
|
|
|
|
|
|

6 / 13~~~~~~~

F
E|
B|
G|

Dm

Dm
|
|
|

6 / 13~~~~~~~

D|
A|
E|

(C) Bb

10 \ 5~~~~~~~

|
|
|
|
|
|

6 / 13~~~~~~~

(C) Bb

10/13\10~\5~~

|
|
|

[To Fade]

|
|
|

Dm
|
|
|
|
|
|

6 / 13~~~~~~~

|
|
|

Bb

10 \ 5~~~~~~~

Dm
|
|
|

(C)

(C)

|
|
|
|
|
|

Bb

10 \ 5~~~~~~~

|
|
|

Date: Sun, 16 Nov 1997 11:56:57 +0000


From: Paul Nicholas
Subject: Title: TORN By: Natalie Imbruglia

---===<<< TORN >>>===--Natalie Imbruglia


This a Fantastic Song. I have listenend to this track repeatedly and I
feel that this is pretty close, I have limited knowledge of Chords, so
the Build-Up is no doubt using Chords, If so, please contact me and tell
me what they are.
Transcribed by Paul (PanMan) Nicholas -=<>=- paul@rigel.demon.co.uk

-=< Intro >=Guitar1 :

Plays the BarChord 'F' four times, using a heavy/slow pluck.


While Guitar 2, plays these 4 notes slowly.

E|----8----|----------|----------|---------|
B|---------|----11----|----10----|----8----|
G|---------|----------|----------|---------|
D|---------|----------|----------|---------|
A|---------|----------|----------|---------|
E|---------|----------|----------|---------|

-=< Verse >="I thought I saw a man brought to life..."


F
E|--------1--------|
B|--------1--------|
G|--------2--------|
D|--------3--------|
A|--------3--------|
E|--------1--------|
"He was warm, he came around like he was dignified..."

|
|
|

|
|
|

Am
E|--------0--------|
B|--------1--------|
G|--------2--------|
D|--------2--------|
A|--------0--------|
E|--------0--------|
"He showed me what it was to cry."
Bb
E|--------1--------|
B|--------3--------|
G|--------3--------|
D|--------3--------|
A|--------1--------|
E|--------1--------|

F
"Well you couldn't be that man I adored"
Am

Bb

"You dont seem to know - Don't seem to care what your Heart is for"

"...But I don't know him anymore."

-=< Build Up >=-

"theres nothing..." "My conversation" "Thats what..."

"Nothing's fine."

E|------------------|----------------|----------------|----------------|
B|--------------10--|-----------8----|---------5------|-----------8----|
G|----------10------|--------9-------|------5---------|--------9-------|
D|------12----------|------10--------|-----7----------|------10--------|
A|--12--------------|--10------------|--7-------------|--10------------|
E|------------------|----------------|----------------|----------------|

-=< Chorus >=F


C
"Im all out of Faith"
Dm
"This is how I feel"
Bb
F
"I'm cold and I am shamed lying naked on the floor"
C
"Illusion never changed"
Dm
"Into something real"
Bb
F
"I'm wide awake and I can see the perfect sky is Torn"
C
Dm
UP, let ring)
"You're a little late, I'm already Torn."

Bb*(Slow/Hard strum

-=< Outro >=s

E|---1-/ 8----------|----10-/--------|---1-/-8--------|--10-/-13-/-10--|
B|------------------|---------10-----|----------------|----------------|
G|------------------|----------------|----------------|----------------|
D|------------------|----------------|----------------|----------------|
A|------------------|----------------|----------------|----------------|
E|------------------|----------------|----------------|----------------|

END
+--------------------------------------------------------------------------+
| This file is the author's own work and represents their interpretation
|
| of the song. You may only use this file for private study, scholarship, |
| or research.
|
+--------------------------------------------------------------------------+
Ultimate-Guitar.Com 2015
Show/hide chords diagrams

Add more chord diagrams to the list:

E
E
B
G
D
A
E

|---|---|---|---|---|
|---|---|---|---|---|
|-1-|---|---|---|---|
|---|-3-|---|---|---|
|---|-2-|---|---|---|
|---|---|---|---|---|

A
o
o
o
o
o
o

E
B
G
D
A
E

|---|---|---|---|---|
|---|-3-|---|---|---|
|---|-2-|---|---|---|
|---|-1-|---|---|---|
|---|---|---|---|---|
|---|---|---|---|---|

G
E
B
G
D
A
E

|---|---|-3-|---|---|
|---|---|---|---|---|
|---|---|---|---|---|
|---|---|---|---|---|
|---|-1-|---|---|---|
|---|---|-2-|---|---|

D
o
o
o
o
o
x

E
B
G
D
A
E

Gm
o
o
o
o
o
o

E
B
G
D
A
E

|-X-|---|---|---|---|
|-X-|---|---|---|---|
|-X-|---|---|---|---|
|-X-|---|-4-|---|---|
|-X-|---|-3-|---|---|
|-X-|---|---|---|---|

Dm
|-1-|---|---|---|---|
|---|---|-3-|---|---|
|---|-2-|---|---|---|
|---|---|---|---|---|
|---|---|---|---|---|
|---|---|---|---|---|

o
o
o
o
o
o

E
B
G
D
A
E

|-X-|---|---|---|---|
|-X-|---|---|---|---|
|-X-|-2-|---|---|---|
|-X-|---|-4-|---|---|
|-X-|---|-3-|---|---|
|-X-|---|---|---|---|

E
B
G
D
A
E

o
o
o
o
o
o

1 fr.

C
o
o
o
o
x
x

o
o
o
o
x
x

3 fr.

E
B
G
D
A
E

|---|-2-|---|---|---|
|---|---|-3-|---|---|
|---|-1-|---|---|---|
|---|---|---|---|---|
|---|---|---|---|---|
|---|---|---|---|---|

|---|---|---|---|---|
|-1-|---|---|---|---|
|---|---|---|---|---|
|---|-2-|---|---|---|
|---|---|-3-|---|---|
|---|---|---|---|---|

Bb
o
o
o
o
o
x

E
B
G
D
A
E

|-X-|---|---|---|---|
|-X-|---|-4-|---|---|
|-X-|---|-3-|---|---|
|-X-|---|-2-|---|---|
|-X-|---|---|---|---|
|---|---|---|---|---|
1 fr.

o
o
o
o
o
x

Am
E
B
G
D
A
E

|---|---|---|---|---|
|-1-|---|---|---|---|
|---|-3-|---|---|---|
|---|-2-|---|---|---|
|---|---|---|---|---|
|---|---|---|---|---|

o
o
o
o
o
x