Sei sulla pagina 1di 20

Heal the World

By Michael Jackson
INTRO & VERSES
A
Bm7
C#m
Bm7
E |----------------------------------------------------------|
B |-------2-------------3--------------5--------------3------|
G |-----2---2---2-----2---2---2------6---6---6------2--------|
D |---2-------2-----4-------4------6-------6------4----------|
A |-0-------------0--------------0--------------0------------|
E |----------------------------------------------------------|
VERSE 1
A
Bm7
There's a place in your heart
C#m
Bm7
And I know that it is love
A
And this place could be much
Bm7
C#m
Bm7
Brighter than tomorrow
A
Bm7
And if you really try
C#m
Bm7
You'll find there's no need to cry
A
In this place you'll feel
Bm7
C#m
Bm7
There's no hurt or sorrow
PRE-CHORUS
D C#m
There are ways to get there
D
C#m
If you care enough for the living
Bm7
Make a little space
Make a better place
CHORUS
A
Heal the world
Bm7
Make it a better place
D
For you and for me
A
E
And the entire human race
F#m
C#m
There are people dying
D
C#m
If you care enough for the living
Bm7
D
A
Make a better place for you and for me
Bm7

C#m

Bm7

VERSE 2
A
Bm7
If you want to know why
C#m
Bm7
There's a love that cannot lie

A
Bm7
C#m
Bm7
Love is strong it only cares for joyful giving
A
Bm7
If we try we shall see
C#m
Bm7
In this bliss we cannot feel
A
Bm7
Fear or dread we stop existing
C#m
Bm7
And start living
PRE-CHORUS

D
C#m
Then it feels that always
D
C#m
Love's enough for us growing
Bm7
So make a better world
Make a better world
[CHORUS]
BRIDGE

G
And the dream we were conceived in
A
Will reveal a joyful face
G
And the world we once believed in
A
Will shine again in grace
F#m
C#m
Then why do we keep strangling life
D
C#m
Wound this earth crucify this soul
Bm7
Though it's plain to see
This world is heavenly
D
Be God's glow
VERSE 3

A
Bm7
We could fly so high
C#m
Bm7
Let our spirits never die
A
Bm7
C#m
Bm7
In my heart I feel you are all my brothers
A
Bm7
Create a world with no fear
C#m
Bm7
Together we cry happy tears
A
Bm7
See the nations turn their swords
C#m
Bm7
Into plowshares
[PRE-CHORUS]
[CHORUS]

OUTRO
B
Heal the world
C#m7
Make it a better place
E
For you and for me
B
F#
And the entire human race
G#m
D#m
There are people dying
E
D#m
If you care enough for the living
C#m7
E
B
Make a better place for you and for me
C#
Heal the world
D#m7
Make it a better place
F#
For you and for me
C#
G#
And the entire human race
A#m
Fm
There are people dying
F#
Fm
If you care enough for the living
D#m7
F#
C#
Make a better place for you and for me
ENDING
C#
F#
You and for me

C#

To Be With You
C#m
E
Hold on little girl
A9
E
Show me what he's done to you
C#m
E
Stand up little girl
A9
E
A broken heart can't be that bad
A9
When it's through, it's through
A9
E
Fate will twist the both of you
D
So come on baby come on over
B7
Let me be the one to show you

E(G)
A(C)
B7(D7)
I'm the one who wants to be with you
A(C)
B7(D7)
Deep inside I hope you feel it too
A(C)
B7(D7)
Waited on a line of greens and blues
A(C)
B7(D7)
E(G)
Just to be the next to be with you

E(G)
E(G)
E(G)

C#m
E
Build up your confidence
A9
E
So you can be on top for once
C#m
E
wake up who cares about
A9
E
Little boys that talk too much
A9
E
I seen it all go down
A9
E
Your game of love was all rained out
D
So come on baby, come on over
B7
Let me be the one to hold you
Chorus
A9
Why be alone when we can be together baby
G
You can make my life worthwhile

C#m

And I can make you start to smile


Solo: E A9 B7 E E A9 B7 E (2 times)
A9
E
When it's through, it's through
A9
E
Fate will twist the both of you
D
So come on baby come on over
B7
Let me be the one to show you (Repeat Chorus)

SOLO
sl.
h p h
-----------------------|----------------------------|
----------5------------|----------------------------|
-1--2/-4-----6----4----|-4----4---------------------|
-2--4/-6-----7----7----|-4----4--6--4--6------------|
-----------------------|----------------------------|
-----------------------|----------------------------|
sl.
~~~
h p p
let ring
------------------4----|-2--4-2-0----0--0-----------|
----------5---~~~-5----|----------0--0--0-----------|
-1--2/-4-----6---------|----------------------------|
-2--4/-6-----7---------|----------------------------|
-----------------------|----------------------------|
-----------------------|---------------------0------|
sl.
-----------------------|----------------------------|
----------5------------|--7----9--9----------12-10--|
-1--2/-4-----6----4----|--8----9--9---------9--9----|
-2--4/-6-----7----7----|--9----11-11----9-11--------|
-----------------------|-------------/11------------|
-----------------------|----------------------------|
~~
h p p
n.h.
sl
--~~~---------------4--|-2--4-2-0--0---12-----------|
-9---10--12---------5--|---------0-----12-----------|
------------/9---~~----|---------------------11/13--|
---------------11\-----|----------------------------|
-----------------------|----------------------------|
-----------------------|----------------------------|
Im the one
Deep inside

who wants to be with you.


hope you'll feel it too.

G
G/A G/B G
Waited on
a

Cadd9
D
Em
line of greens and blues

just to be the next to


(back to E progression)
E E/F# E/G#
Im the one
Deep inside
E E/F# E/G#
Waited on
just to be

Just to

the

be

be with

This line is different


you.

Asus2
B
E
who wants to be with you
I
hope you'll feel it too.
E Asus2
B
C#m
This line is different
a
line of greens and blues
the next to
be with
you.
next to

be with

you.

(hold E on ending)

JUST TAKE MY HEART : MR. BIG


Jibesh@hotmail.com
( PLAY WITH THE FEEL... DONT SKIP ANY TAB...TAB NOT TO THE BEAT)
Arranged on Piano and Permormed on Guitar... Nice Song.
tr is Tremo,h is hammer,pis pull, \ is slide down to,
/ slide up to, * is Artifical Harmony,
[] is Natural Harmony
Intro:1 ( Repeat Twice)
e----------3--0-----------|--------------------|
B-------3--------3-----0--|--------------------|
G-----5-------------5-----|-5---0--------------|
D-------------------------|---7---7------------|
A--0----------------------|---------7--5--7----|
F-------------------------|------------------7-|
e---------3--0---------------|----------------8-|
B-------3--------------------|-----------[12]---|
G----5-----------------------|-[12]-------------|
D-------------------[12]-----|-------[7]--------|
A------------------------[7]-|------------------|
F-0-------------[7]----------|------------------|
Intro:2
e------------------10------|-----------10--10--|
B--10h12--13-12tr-------10-|-12-13r12--12--12--|
G--0------0---0----0-----0-|-0--0--------------|
D--0------------------0----|--------------0---0|
A--------------------------|-------------------|
F--------------------------|-------------------|
e------------------------|---------------------|
B--10-12-13--12tr-8----6-|-8--6h8r6\5--3tr-----|
G--0--0--10---0---0----0-|-0--0--------0-------|
D--------------------0---|-------------0-------|
A------------------------|---------------------|
F------------------------|-----------------0---|
B--10h12--13-12tr-------10-|-12-13r12--12--12--|
G--0------0---0----0-----0-|-0--0--------------|
D--0------------------0----|--------------0---0|
A--------------------------|-------------------|
F--------------------------|-------------------|
e------------------------|------------------------------|
B--10-12-13--12tr-8----6-|-8--6h8r6\5--3-5--3h5r3\1---0-|
G--0--0--10---0---0----0-|-0--0--------0-0------------0-|
D--------------------0---|----------------------------0-|
A------------------------|------------------------------|
F------------------------|------------------------------|
Intro:3 ( Repeat Twice )
e-------8--------8---|-----8-------8----|
B-----8---8----8---8-|---8---8---8----8-|
G--5--------5--------|-5-------5--------|
D--------------------|------------------|
A--------------------|------------------|
F--------------5---0-|------------------|

Verse:
e--------------|--------------|-------3----5---3----------|
B--5-----3-3-3-|-1-1---1---3--|---5---3----6---6--5-6--8--|
G--5-----3-3-3-|-2-2---2---3--|---5---4--5---5----5-7--9--|
D--5-----3-3-3-|-----3---3----|---5---------------5----10-|
A--------------|--------------|-0-------------------------|
F--------------|--------------|---------------------------|
e--------------|--------------|------3-3----|-5--3--------3-|
B-8------3-3-3-|-1-1---1----3-|---5--3-3----|-6--6--5-3-5-6-|
G-9------3-3-3-|-2-2---2----3-|---5--4-4--5-|---5---5---5-5-|
D-10-----3-3-3-|-----3----3---|---5---------|---------------|
A--------------|--------------|-0-----------|---------------|
F--------------|--------------|-------------|---------------|
e-----------|---------------|-------5----------|---3------3-|
B---8--6--5-|-6\5-------5---|-6-------6--5---3-|-----3----3-|
G---5--5--5-|-----5---5-----|---5----------5---|-5-----5--4-|
D-----------|-------5-------|-----7------5---5-|----------5-|
A-----------|---------------|-5----------------|------------|
F-----------|---------------|------------------|------------|
e---------------|---------1----|
B--1----1-------|---1-----1----|
G--1------1-----|-----3---3----|
D--1---------1--|-------3------|
A---------------|-1------------|
F--3------------|--------------|
Chorus:
e------------|-------------|--------------|---------------|
B------------|-------------|--------------|---------------|
G--5---------|-----------12|-5------------|---------------|
D--5--3--5---|--9-10--12---|-5-3---7--5-5-|-12--10--9-----|
A--3--3--5---|-------------|-3-3---7--5-5-|-----------10--|
F-----0--2---|-------------|---0---4--2-2-|---------------|
e-----------------------|--------|
B-----------------------|--------|
G---7-7-----------------|------5-|
D-7-7-7--8-8-8-7-7-5-5--|-3--5-5-|
A-7-5-5--8-8-8-7-7-5-5--|-3--5-3-|
F-4------5-5-5-4-4-2-2--|-0--2---|
INTERLUDE: ( Repeat Twice )
e-------8--------8---|-----8-------8----|
B-----8---8----8---8-|---8---8---8----8-|
G--5--------5--------|-5-------5--------|
D--------------------|------------------|
A--------------------|------------------|
F--------------5---0-|------------------|
Guitar Solo:
e---------------------------------------|
B-11tr--13p15--11h13r11\10----10--------|
G--------------------------12----12--10-|
D---------------------------------------|
A---------------------------------------|
F---------------------------------------|

e------------------------------------------|
B------------------------------------------|
G-9-10--12tr---9h10r9----------------------|
D----------------------12-10-12-10-8-------|
A--0---------------------------------12-10-|
F------------------------------------------|
e-------------------------------|----------------------|
B---------------9-10----9-10-12-|----------------------|
G--------------------12---------|-12p14--10\9----9-----|
D-8tr--10h12tr------------------|-------------12---10--|
A-------------------------------|----------------------|
E-------------------------------|----------------------|
e-18p20tr---22p21--20--------------------|-----------------|
B---------------------21-----------------|-----------------|
G-------------------------20--19--20--22-|------22p24---22-|
D----------------------------------------|-20tr------------|
A----------------------------------------|-----------------|
F----------------------------------------|-----------------|
e----8-----------------------------------------------------------|
B-11----11\8--------8--11r8h11\8---------------------------------|
G-------------10p12---------------10--8^----8-10p-8--10r8h10\8\7-|
D----------------------------------------10----------------------|
A--0-------------------------------------------------------------|
F----------------------------------------------------------------|
e----------------------------------------------|-----------------|
B----------------------------------------------|-----------------|
G----7-----------------------------------------|-----------------|
D-10---[8]-10-----8----------------------------|-----------------|
A-------------[10]--[8]-10*--6--8\6----------6-|-8h10---8h10\8\7-|
F--0--------------------------------7--4--7----|-----------------|
CHORUS:2

FOR SECOND CHORUS THE CHROD PROGESSION IS

D5-G5-A5D5-G5-B5-A5B5-E5-C5B5-A5-G5-A5-Bb5-C5
OUTRO: REPEAT 7 TIMES
e-------10-----------10-|
B----10----10----10-----|
G--7----------7---------|
D-----------------------|
A-----------------------|
F-----------------------|
LAST OUTRO:
e--------10---------------|-----|
B-----10----10-5----------|--7--|
G--7-----------5--5-------|--7--|
D-------------------5-----|--7--|
A---------------------7\9-|-----|
F-------------------------|-----|

Lyrics:
Verse:
It's late at night and neither one of us is sleeping
I can't imagine living my life after you're gone
Wondering why so many questions have no answers
I keep on searching for the reason why we went wrong
Where is our yesterday
You and I could use it right now
But if this is goodbye
Chorus:
Just take my heart when you go
I don't have the need for it anymore
I'll always love you, but you're too hard to hold
Just take my heart when you go
Verse:
Here we are about to take the final step now
I just can't fool myself, I know there's no turning back
Face to face it's been an endless conversation
But when the love is gone you're left with nothing but talk
I'd give my everything
If only I could turn you around
But if this is goodbye
Chorus:
Just take my heart when you go
I don't have the need for it anymore
I'll always love you, but you're too hard to hold
Just take my heart when you go

Move On
G, C, G, C

G
C
well ive, been thinkin bout the future
G
C
too young to pretend
C
its such a waist, to always look behind you
G
C
you should be lookin strait ahead
D
C
Am
Yea, Im gonna have to move on
C
before we meet again
G
D
Yea, its hard
Am7
C
if your hadve only seen
G
C
10:34 flinders street station
G
C
Im lookin down the tracks
G
C
uniform man askin am I paid up
G
C
why would I wanna be there
D
C
Yea, Im gonna have to move on
C
before we meet again
G
D
Yea, its hard
Am7
C
if your hadve only seen
G
D
take control
Am7
C
and dont be afraid of me
G
cause every once and a while

Am

C
you think about if youre gonna get yourself together
G
C
you should be happy just to be alive
G
and just because
C
you just dont feel like coming home
G
C
dont mean that youll never arrive
D
C
Am
Yea, Im gonna have to move on
C
before we meet again
G
D
Yea, its hard
Am7
C
if your hadve only seen
G
D
take control
Am7
C
G (one stroke)
and dont be afraid of me

COME AROUND AGAIN

(intro)
Em
e|------------------------------|
e|--3-|
B|------------------------------|
B|--2-|
G|-------0--------0-----------0-| x 6 last time with a G|--0-|
D|-----0--------0---0h2p0-------|
D|--0-|
A|-0h2------0h2------------2----|
A|--0-|
E|------------------------------|
E|--3-|
(verse)

G
Yeah I'm waiting

D
For you it's been so long

C
Yeah im sad when im on my own
G
D
C
They said it takes a long long time
D
If it's not too much
G
D
C
Could you hear me now
(chorus)

D
You promised me you'd always be

C
When I wake up please come around again
G
Come around again
D
You promised me you'd always be
C
When I wake up please come around again
G
D C
Come around again yeah
(verse)

G
Yeah im waiting

D
For you it's been so long.

C
Yeah im sad when im all alone
G
D
C
They said it takes a long long time
D
If it's not too much
G
D
C
Could you hear me now
(chorus)
D
You promised me you'd always be

C
When I wake up please come around again
G
Come around again
D
You promised me you'd always be
C
When I wake up please come around again

(Bridge)
Am
Yeah theres something worth thinking about
D
Get it out of my head
Am
Something worth kicking around
D
Something you said
G
I don't know when im right
D
I only know when im wrong
Am
When you gonna live some life
Show it off
C
And keep the lights from going off
D
Cause I cant see
(verse)
G
D
Cause im waiting for you, its been so long
C
Yeah I'm lost but I'm at home
G
D
C
They said it takes a long long time
D
If it's not too much
G
D
C
Could you hear me now?
G
Come around again
C
Come around again

G
Please come around again

HIGH ENOUGH (Album Version)


Chords: Jonathan Blackwell
(standard tuning)
Strings Open
Verse 1:
[Asus2]I don't wanna hear about it anymore.
[F#m7]It's a shame I've got to live without you
[Esus]There's a fire in my heart,
[E]A pounding in my brains drivin' me
[Dsus2]crazy.

anymore.

Verse 2:
[Asus2]We don't need to talk about it anymore.
[F#m7]Yesterday's just a memory, can we close the door?
[Esus]I just made one mistake,
[E]I didn't know what to say when you called me
[Dsus2]baby.
PreChorus:
[F]Dont' say good[G]night.
[F]Say you're gonna [Am]stay forever.
[F]Oh [G]woah all the [A]way
Chorus:
[D]Can you take [A]me hi[Bm]gh enough?
[Em]To fly me over, (fly me [G]over) yester[A]day
[D]Can you take [A]me hi[Bm]gh enough?
[Em]It's never over
[G]And yesterday's just a memory (yesterday's just a memory)
Verse 3:
[Asus2]I don't wanna live without you anymore.
[F#m7]Can't you see I'm in misery? And you know for sure
[Esus]I would live and die for you
[E]I know just what to do when you call me
[Dsus2]baby
PreChorus:
[F]Dont' say good[G]bye.
[F]Say you're gonna [Am]stay forever.
[F]Oh [G]woah all the [A]way
Chorus:
[D]Can you take [A]me hi[Bm]gh enough?
[Em]Can you fly me over, (fly me [G]over) yester[A]day?
[D]Can you take [A]me hi[Bm]gh enough?
[Em]It's never over
[G]And yesterday's just a [A]memory of ya
Bridge:
[Bm]honey(Whoa, Whoa - oh [D] - oh oh)I was[A] running for the
[Bm]door(Whoa, Whoa - oh [D] - oh oh)The[A] next thing I re[Bm]member(Whoa, Whoa - oh [D] - oh oh)I was [A]running back for

[Bm]More(Whoa, Whoa - oh [D] - oh oh)Yay, Yay, yay, [A]yay, ye-ah


Solo: (Album version)
(use alternate E)
[E](3 beats) [B](1 beat)
[E](3 beats) [B](1 beat)

[C#m](4 beats)
[C#m](4 beats)

[F#](4 beats)
[F#](4 beats)

[A](2 beats)
[A](2 beats)

PreChorus (up 2 half steps)


[G]Don't say good[A]bye.
[G]Say you're gonna [Bm]stay forever.
[G]Oh, [A]whoa all the [B]way
All the way, all [A]the way, yeah.
Chorus:
[D]Can you take [A]me hi[Bm]gh enough?
[Em]Can you fly me over, (fly me [G]over) yester[A]day?
[D]Can you take [A]me hi[Bm]gh enough?
[Em]It's never over
[G]Whoa whoa [A]whoa whoa
[D]Can you take [A]me hi[Bm]gh enough?
[Em]Won't you fly me over, (won't you fly me [G]over) yester[A]day?
[D]Can you take [A]me hi[Bm]gh enough?
[Em]It's never over
[G]Whoa whoa [A]whoa whoa
[A] ...fade to strings [D]
Chords:
From low E to High E
Asus2:
0 0 2 2 0 0
F#m7:
2 4 2 2 5 2
Esus:
0 2 2 2 0 0
E:
0 2 2 1 0 0
Dsus2:
x 0 0 2 3 0
F:
1 3 3 2 1 1
G:
3 5 5 4 3 3
Am:
5 7 7 5 5 5
A:
5 7 7 6 5 5
D:
X 5 7 7 7 5
Bm:
7 9 9 7 7 7
E(alt): 0 7 9 9 9 7
C#m:
9 11 11 9 9 9
F#:
2 4 4 3 2 2

[B](2 beats)
[B](2 beats)

MORE THAN WORDS


INTRO: G... Cadd9... Am7... C... C.D. G...
VERSE:
G
Cadd9
Saying I love you is
Am7
C
D
G
not the words I want to hear from you
G
Cadd9
It's not that I want you
Am7
C
D
Em
not to say but if you only knew
Bm7
Am7
Ho-ow ea-sy
D
G
D/F#
Em
It would be to show me how you feel
Bm7
Am7
D7
G7
More than words is all you have to do
G7
C
To make it real
C
Cm
G
Then you wouldn't have to say
Em7
That you love me 'cos
Am7
D7
G
I'd already know
BRIDGE:
G
What
C
More
G
What
C
Then

D/F#
Em
Bm
C
would you do if my heart was torn in two
G/B
Am7
D7
G
than words to show you feel that your love for me is real
D/F# Em7
Bm7
C
would you say if I took those words away?
G/B
Am7
you couldn't make things new
D7
G
Just by saying I love you

(Repeat intro x2)


VERSE 2
Now that I've tried to
Talk to you and make you understand
All that you have to do is
Close your eyes and just reach out your hands
And touch me
Hold me close don't ever let me go
More than words
Is all I ever needed you to show
Then you wouldn't have to say
That you love me
Cos I'd
All Ready Know
REPEAT BRIDGE AD LIB AND FADE

Extreme - More Than Words


INTRO_______________________________________________________________________
--3---3---3---3--3---3---3---3------------------------------------2-------33---------------

--3-----3-3------3-------3---1------------------------------------3-3-3---0----------------

|
|
|
|
|
|

--0-----3--------1-------1---1------------------------------------0-0-0---3----------------

|
|
|
|
|
|

--0---2---3---3--1---3---3---3---------------------0-------------------------------------3-

| --3-----3-3----| --3-------3---1| ---------------| ---------------| ------3-3-3---0| ---------------(last) time

|
|
|
|
|
|

--0-----3--------1-------1---1------------------------------------0-0-0---3----------------

|
|
|
|
|
|

*
--0---2---3--(3)--1---3------(3)-------------(-)-------------(-)--------0----(-)-------------(3)-

--3---3---3---3--3---3---3---3------------------------------------2-------3---------------* Don't play 2nd

|
|
|
|
|
|

|
|
|
|
|
|
|
|
|
| X 2
|
|

VERSE_______________________________________________________________________
knew
how
-0--0----------------0---0---0---1------------0-------------------------------------0-0--0---0---0-----

|
|
|
|
|
|

easy
--------3-0------1-----1-1------0-----------------------------0---0-0-0---0----------------

it would be to show
2--------2--2---3- |
3--------3--3---3- |
------------------ |
0--------0--0----- |
------------------ |
----------------3- |

more than words


is
------------------- | --------3-3------0---0---0------1- | --1-------1------0-------0-------- | --0------------------------------- | ---------------------2---2------0- | --0---0-0-0---0--0---------------- | ----------------

|
|
|
|
|
|
|
|
|
|
|
|

then you would - n't have to say


---0----0-0------ | ------------------ |
---1------1----4- | ---4-----4-4----2- |
----------------- | ---0-------0----0- |
----------------- | ------------------ |
---3--3-3-3----3- | ---3---3-3-3------ |
----------------- | ----------------3- |
(1)
I'd alreadly
know
--0---2--|
--1---1--|
--0---2--|
--2---0--| (1st time through)
--0---x--|
--x---x--|
(2)
I'd al - rea - dy
--0------2------4--1------1------3--0------2------4--2------0------3--0------x------x--x------x------x-

all you have to do


--------0----2---1--------3----3----------------------0-------0--------------------------------------------3-

|
|
|
|
|
|

that you love


--3-----3-3----3- |
--3-------3----3- |
----------------- |
----------------- |
----------------- |
------3-3-3-2--0- |

me
'cause
--3---3---3----- |
--3---3---3----- |
---------------- |
------2--------- |
--2-------2----- |
---------------- |

know
|
|
|
|
|
|

me how you feel


--3------------- |
--3---3---3---0- |
------2---2----- |
---------------- |
---------------- |
--3---2---2---0- |

(2nd time through)

to
make it real
--1----1----1---0- |
--0----0----0----- |
------------------ |
------------------ |
-------2----2---3- |
--3--------------- |

CHORUS_______________________________________________________________________
What would you
--3---3---3----- | --3---3---3------3---3---3----- | --3---3---3-------------------- | ------------------------------- | ---------------------2--------- | ------2--------3-------------3- | --------------0-

do
if my heart was torn
2-2---2--2--0-----0---2------3------3--------3-------0---------------------------------------------------------------------------------2-2---2--2--2-----2-------0-

|
|
|
|
|
|

More than words to show you feel


----------------- | ----------------- |
--1--1----1----1- | --1---1----1---1- |
--0-------0----0- | --0--------0---0- |
--2-------------- | ---------------2- |
-----3----3----3- | ------3----3---0- |
----------------- | ----------------- |
What
would
you
--3---3---3----- | --3---3---3------3---3---3----- | --3---3---3-------------------- | ------------------------------- | ---------------------2--------- | ------2----------------------3- | ----------------

that your love


---------------- |
-1--1----1----3- |
-0-------0----2- |
--------------0- |
-0--0----0------ |
---------------- |

|
|
|
|
|
|

into
--------2------------3---1------------0------4-----2--2--2------3--------------

for me is real
--2-------2---3- |
--3-------3---3- |
------2--------- |
------0--------- |
---------------- |
--------------3- |

say
if I took those words
away
2-2-0--0--0--2------ | ----------2----- |
--3-------3-------0- | ----------3---1- |
-------------------- | ---------------- |
-------------0------ | ---------------- |
-------------------- | --2---2-4-----3- |
2-2----2--2-------0- | ---------------- |

|
|
|
|
|
|

then you couldn't


make things new
----------------- | -------------------- |
--1---1---1----1- | --1---1----1------1- |
--0-------0------ | --0---0----0------0- |
----------------- | -------------------- |
--3---3---3----3- | --3---3----2------0- |
----------------- | -------------------- |

just by
--------3------1-------1----0-------0---------------------0-0-0----------------

|
|
|
|
|
|

sayin' I love you


-2---------- |
-1---------- |
-2-(strum)-- |
-0---------- |
-x---------- |
------------ |

PRECHORUS____________________________________________________________________
(Exactly like INTRO except for 6th measure)
--3---3---3---3--3---3---3---3------------------------------------2-------33---------------

|
|
|
|
|
|

--3-----3-3------3-------3---1------------------------------------3-3-3---0----------------

--3---3---3---3--3---3---3---3------------------------------------2-------3----------------

|
|
|
|
|
|

--3-----3-3---3-------3-------------------------------3-3-3--------------

|
|
|
|
|
|

|
|
|
|
|
|

--0-----3--------1-------1---1------------------------------------0-0-0---3----------------

--0---1---0---2---0---x--

|
|
|
|
|
|

--2---1---2---0---x---x--

|
|
|
|
|
|

--0---2---3---3--1---3---3---3---------------------0-------------------------------------3-

|
|
| tap tap
|
|
|

|
|
|
|
|
|

|
|
|
|
|
|

LOVE OF MY LIFE
-ExtremeC
Am
Love of my Life, You've hurt me
Dm
G
You've broken my heart, and now you leave me
C
C7
F
Love of My Life, Can't you see?
Dm
Am
bring it back, bring it back
Bb
F
Bb
don't take it away from me, because
Am Dm
G
You don't know
C
F
what it means to me...
C
Am
Love of my life don't leave me
Dm
G
You've taken my love, and now desert me
C
C7
F
Love of my life can't you see?
Dm
Am
Bring it back, bring it back
Bb
F
Bb
Don't take it away from me because
Am Dm
G
you don't know
C
C7
F
what it means to me...
Dm
Am
You will remember, When this is blown over
Bb
F
And everything's all by the way
Dm
Am
F#dim
When I grow older I will be there at your side to remind you
Gm
How I still love you
C7
I still love you.. u ...... u ......
F#m
B
A
D C G
Love of my life, Love of my Li..fe
Dm
Am
Back, hurry back
Bb
F
Bb
Don't take it away from me, because
Am Dm
G
you don't know
C
C7
F
what it means to me....
Dm
Love of my life...
Am
Love of my life...

Bb
Bbm F
hu.. hu.. yeah yeah yeah

I Live My Life For You


You know you're everything
Em
And I could never see, the
G
And you know I give myself
Em
And no matter what you do,

G
to me
Am
two of us apart

to you
Am
I promise you my heart

C
G
I've built my world around you and I want you to know
C
G
Am
I need you, like I've never needed anyone before

D
Am

D
D

G D
C
D
I live my life for you
C
G
Am
I want to be by your side in everything that you do
G
D
And if there's only one thing you can believe is true
Am C
D
G
C D
I live my life for you

D
Am

G
I dedicate my life to you
Em
Am
D
You know that I would die for you, but our love would last forever
G
And I will always be with you
Em
Am
C
And there is nothing we can't do, as long as we're together
C
G
I've built my world around you and I want you to know
C
G
Am
I need you, like I've never needed anyone before

Am

D
D

G D
C
D
I live my life for you
C
G
Am
I want to be by your side in everything that you do
G
D
And if there's only one thing you can believe is true
Am C
D
G
C D
I live my life for you

D
Am

(guitar solo on chords of the verse)


C
G
I've built my world around you and I want you to know
C
G
Am
I need you, like I've never needed anyone before
G D
C
D
I live my life for you
C
G
Am
I want to be by your side in everything that you do
G
D
And if there's only one thing you can believe is true
Am C
D
G
C
D Am C
D
I live my life for you wow, yeah I live my life for you

Am

D
D

D
Am
Gsus7 G