Sei sulla pagina 1di 10

MALAS INTENCIONES **

( HEROES DEL SILENCIO )


INTRO
A
e|------0------------------------|
|-----0-0-----0-0--|
B|------------3-----2-------3----|
|------------------|
G|---2-----2-----2-----2-0----2--| 3x |--2-------2-------|
D|-------------------------------|
|------------------|
A|-------------------------------|
|------------------|
E|-------------------------------|
|------------------|
RIFF 1
Bm
Em
A
e|---2----------2-----2------------2-----3---3-3-3/5------7--5-----|
B|-------3---------3------3-----------3----3---------5----------5--|
G|-----------4----------------4------------------------------------|
D|-----------------------------------------------------------------|
A|-----------------------------------------------------------------|
E|-----------------------------------------------------------------|
Bm
Em
A
e|---2----------2-----7--2-----2------3-----3-3-3/5-5---7--9-7-5--|
B|-------3---------3--------3-----3------3-----------5------------|
G|-----------4----------------------------------------------------|
D|----------------------------------------------------------------|
A|----------------------------------------------------------------|
E|----------------------------------------------------------------|
Bm
Em
A
e|---2----------2-----7--2-----2------3-----3-3-3/5-5---12-12--|
B|-------3---------3--------3-----3------3------------5--------|
G|-----------4-------------------------------------------------|
D|-------------------------------------------------------------|
A|-------------------------------------------------------------|
E|-------------------------------------------------------------|
Bm
F#m
E
e|---2----------2-----7--2-----2-----------9-9---------9-9--|
B|-------3---------3--------3-----9--10----------9--7-------|
G|-----------4--------------------------11------------------|
D|----------------------------------------------------------|
A|----------------------------------------------------------|
E|----------------------------------------------------------|
VERSO
Bm
G
A
X3
Bm
F#m
e|2-2-2-2-2-2-2-2-2-3---2--0------0| |--2-2-2-2-2-2-2-2-2-2-2-2-2-2-2-2--|
B|3-3-3-3-3-3-3-3--------------3---| |--3-3-3-3-3-3-3-3-2-2-2-2-2-2-2-2--|
G|4-4-4-4-4-4-4-4------------------| |--4-4-4-4-4-4-4-4-2-2-2-2-2-2-2-2--|
D|4-4-4-4-4-4-4-4------------------| |--4-4-4-4-4-4-4-4-4-4-4-4-4-4-4-4--|
A|2-2-2-2-2-2-2-2------------------| |--2-2-2-2-2-2-2-2-4-4-4-4-4-4-4-4--|
E|2-2-2-2-2-2-2-2------------------| |--2-2-2-2-2-2-2-2-2-2-2-2-2-2-2-2--|
PUENTE
Bm
G
A
Bm
G
A
e|2-2-2-2-2-2-2-2-2-3---2--0------0----|--2-2-2-2-2-2-2-2-3-3-3-3-0-0-0-0-|
B|3-3-3-3-3-3-3-3--------------3-------|--3-3-3-3-3-3-3-3-3-3-3-3-2-2-2-2-|
G-4-4-4-4-4-4-4-4----------------------|--4-4-4-4-4-4-4-4-0-0-0-0-2-2-2-2-|
D|4-4-4-4-4-4-4-4----------------------|--4-4-4-4-4-4-4-4-0-0-0-0-2-2-2-2-|
A-2-2-2-2-2-2-2-2----------------------|--2-2-2-2-2-2-2-2-2-2-2-2-0-0-0-0-|
E|2-2-2-2-2-2-2-2----------------------|--2-2-2-2-2-2-2-2-3-3-3-3-0-0-0-0-|

Bm
G
A
Bm
F#m
e|2-2-2-2-2-2-2-2-2-3---2--0------0----|--2-2-2-2-2-2-2-2-2-2-2-2-2-2-2-2-|
B|3-3-3-3-3-3-3-3--------------3-------|--3-3-3-3-3-3-3-3-2-2-2-2-2-2-2-2-|
G|4-4-4-4-4-4-4-4----------------------|--4-4-4-4-4-4-4-4-2-2-2-2-2-2-2-2-|
D|4-4-4-4-4-4-4-4----------------------|--4-4-4-4-4-4-4-4-4-4-4-4-4-4-4-4-|
A-2-2-2-2-2-2-2-2----------------------|--2-2-2-2-2-2-2-2-4-4-4-4-4-4-4-4-|
E|2-2-2-2-2-2-2-2----------------------|--2-2-2-2-2-2-2-2-2-2-2-2-2-2-2-2-|
ESTRIBILLO
F#m
Bm
A F#m
A
e|----2--------2-----0---2--------0--|
B|----2--------3-----2---2--------2--|
G|----2--------4-----2---2--------2--| 2x
D|----4--------4-----2---4--------2--|
A|----4--------2-----0---4--------0--|
E|----2--------2-----0---2--------0--|
RIFF 2
Bm
Em
A
e|---7--2------2-----7--2-----2------3-----3-3-3/5-5-----12-12--|
B|---------3------3--------3-----3------3------------5----------|
G|--------------------------------------------------------------|
D|--------------------------------------------------------------|
A|--------------------------------------------------------------|
E|--------------------------------------------------------------|
Bm
Em
A
e|---2-----------2------7--2-----2-----3-----3-3-3/5-5----7---9-7-5--|
B|-------3-----------3--------3-----3-----3------------5-------------|
G|-----------4-------------------------------------------------------|
D|-------------------------------------------------------------------|
A|-------------------------------------------------------------------|
E|-------------------------------------------------------------------|
Bm
Em
A
e|2-----------2--------2------------2-------3------3-3-3/5-5-----7---5-----|
B-----3-----------3--------3------------3------3-------------5----------5--|
G|--------4---------------------4------------------------------------------|
D|-------------------------------------------------------------------------|
A|-------------------------------------------------------------------------|
E|-------------------------------------------------------------------------|
Bm
F#m
E
e|---2-----------2--------7--2------2---------------9-9---------9-9--|
B|-------3-----------3----------3-------9--10-------------9--7-------|
G|-----------4---------------------------------11--------------------|
D|-------------------------------------------------------------------|
A|-------------------------------------------------------------------|
E|-------------------------------------------------------------------|
RIFF 3
Bm
Em
A
e|---7--2------2-------7--2------2-------3------3-3-3/5-5-----12-10-9--|
B|---------3-------3---------3-------3-------3------------5------------|
G|---------------------------------------------------------------------|
D|---------------------------------------------------------------------|
A|---------------------------------------------------------------------|

E|---------------------------------------------------------------------|
Bm
F#m
Em
e|---2-----------2-------7--2------2--------------9-9---------12-12--|
B|-------3-----------3---------3-------9--10------------9--7---------|
G|-----------4--------------------------------11---------------------|
D|-------------------------------------------------------------------|
A|-------------------------------------------------------------------|
E|-------------------------------------------------------------------|

SOLO
Bm
Em
A
F#m
A
e|---------------3-2-0--3-2-0---------------2--------3-2-0----3-2-0----|
B|0--0--0-2-3-4-5--------------3-2h3p2----2--0--3-4-5------3-2------3-2|
G|------------------------------------2--------------------------------|
D|--------------------------------------4------------------------------|
A|---------------------------------------------------------------------|
E|---------------------------------------------------------------------|
Bm
Em
A
F#m
A
e|------2---------3-2-0--3-2-0---------------2------------3-2-0---5-3-2----|
B|0--2---0-2-3-4-5-------------3-2h3p2-----2---0--2-3-4-5------3-2------5-3|
G|-------------------------------------2-----------------------------------|
D|---------------------------------------4---------------------------------|
A|-------------------------------------------------------------------------|
E|-------------------------------------------------------------------------|
D
A
D
A
e|2-----2-----2-----2----|---0-----------------|2-----2----2----|-0-0---0-0|
B|--3-----3-----3-----3--|-----3-----2-----3---|--3-----3----3--|----------|
G|----2-----2-----2-----2|2---2---2-----2-0---2|----2-----2----2|2-----2---|
D|-----------------------|---------------------|----------------|----------|
A|-----------------------|---------------------|----------------|----------|
E|-----------------------|---------------------|----------------|----------|
ESTRIBILLO
Bm
G
A X3 Bm
F#m
Bm
e|--2-2-2-2-2-2-2-2-2-3---2-0-----0| |2-2-2-2-2-2-2-2---5--2-------------2|
B|--3-3-3-3-3-3-3-3------------3---| |3-3-3-3-3-3-3-3---------3--2h3p2---3|
G|--4-4-4-4-4-4-4-4----------------| |4-4-4-4-4-4-4-4------------------2-4|
D|--4-4-4-4-4-4-4-4----------------| |4-4-4-4-4-4-4-4--------------------4|
A|--2-2-2-2-2-2-2-2----------------| |2-2-2-2-2-2-2-2--------------------2|
E|--2-2-2-2-2-2-2-2----------------| |2-2-2-2-2-2-2-2--------------------2|

-------------------------------------------------------------------------------Hroes del Silencio


Maldito Duende (TAB)
heroes del silencio

senderos de tracin ()
-------------------------------------------------------------------------------Colaboracin de ADALBERTO LOPEZ ESCUTIA
Z304@ventas.gnp.com.mx
-------------------------------------------------------------------------------HEROES DEL SILENCIO
" MALDITO DUENDE "
Transcripcin por ADALBERTO LOPEZ ESCUTIA
MORELIA, MICHOACAN, MEXICO
INTRO:
FEEDBACK
1 Guitarra con distorsion "ligera", y Chorus
e|-------------------------------------------------------------|
B|-------------------------------------------------------------|
G|-------------------------------------------------------------|
D|-9-----9---9-----7-----9---9-----9-----9---9-----7-----9---9-|
A|---9-----9---9-----9-----9---9-----9-----9---9-----9-----9---|
E|-----7---------7-----7---------7-----7---------7-----7-------|
VERSOS:
2 Guitarras: una "limpia", y otra con CHORUS, sin dist.
RIFF 1:
||-----------------|----------------|-------3--------|-------3--------|
||--------8--7-----|-------8--7-----|----------5-3---|----------5-3---|
||o-----9------9---|-----9------9---|-----5--------5-|-----5--------5-|
||o---9----------9-|---9----------9-|---5------------|---5------------|
||--7--------------|-7--------------|-3--------------|-3--------------|
||-----------------|----------------|----------------|----------------|
|-----------------5-----------|-----------------2------------||
|---------7---------7---7-----|---------3---------3---3------||
|-----7-----7---------7---7---|-----4-----4---------4---4---o||
|---7---7-----7-------------7-|---4---4-----4-------------4-o||
|-5-------------5-------------|-2-------------2--------------||
|-----------------------------|------------------------------||
ESTRIBILLO: (...amanece tan pronto...)
2 Guitarras: 1. arpegeo (dist. "ligera", Chorus) 2. rasgueo (Cho.)
RIFF 2:
||-----------------|----------------|---------------|---------------|
||--------8--7-----|-------8--7-----|---------------|-3-------------|
||o-----9------9---|-----9------9---|-------4-------|---4-----4-----|
||o---9----------9-|---9----------9-|-----5---5-----|-----5-----5---|
||--7--------------|-7--------------|---5-------5---|-------5-----5-|
||-----------------|----------------|-3-----------3-|---------------|
|-----------------5-----------|-----------------2------------||
|---------7---------7---7-----|---------3---------3---3------||
|-----7-----7---------7---7---|-----4-----4---------4---4---o||
|---7---7-----7-------------7-|---4---4-----4-------------4-o||
|-5-------------5-------------|-2-------------2--------------||
|-----------------------------|------------------------------||

INTERLUDE:
2 Guitarras: 1. arpegeo ( Chorus) 2. rasgueo (Cho.)
RIFF 3:
p
p
p p
p
||-----------------|------10-7-10-7----|------5-8-5-8---|------5-7-5------||
||--------8---8----|7---------------7--|5--------------5|----7-------7----||
||o-----9---9---9--|--7---------------7|--5-------------|--7-----------7-o||
||o---9-----------9|----7--------------|----5-----------|7---------------o||
||--7--------------|-------------------|----------------|-----------------||
||-----------------|-------------------|----------------|-----------------||
DESPUES DE INTERLUDE:
( ... ooOOoOO...)
2 Guitarras: 1. arpegeo ( Chorus) 2. rasgueo (Cho.)
RIFF: 4
||-----------------|----------------|---------------|---------------|
||--------8--7-----|-------8--7-----|-------3-2-----|-------3-2-----|
||o-----9------9---|-----9------9---|-----4-----4---|-----4-----4---|
||o---9----------9-|---9----------9-|---4---------4-|---4---------4-|
||--7--------------|-7--------------|-2-------------|-2-------------|
||-----------------|----------------|---------------|---------------|
s
s
|-----------------------------|----------------------------||
|-----------------------------|---------------7------------||
|-------------7-------------7-|---------7-------7---7-----o||
|-----5-----7-------5-----7---|-----9-----9-------9---9---o||
|---5---3-5-------5---3-5-----|---9---9-----9-----------9--||
|-3-------------3-------------|-7--------------------------||
RIFF 1
RIFF 2
RIFF 3
FIN
Comentarios dudas o correcciones:
z304@ventas.gnp.com.mx ADALBERTO LOPEZ ESCUTIA
VIVA MEXICO !

-------------------------------------------------------------------------------Este fichero es trabajo propio de su transcriptor y representa su interpretacin p


ersonal de la cancin. El usuario se compromete a utilizar este material nicamente
para su aprendizaje y estudio personal. Para poder incluir este fichero en otro
sitio Web, es necesario mencionar la procedencia del mismo (www.atame.org) as com
o el nombre y correo del transcriptor.
--------------------------------------------------------------------------------------------------------------------------------------------------------------Hroes del Silencio
Oracin (TAB)

Enrique Bunbury
Senderos de traicion (1990)
-------------------------------------------------------------------------------Colaboracin de Eduardo Osuna Palomino
eopnecaxa@hotmail.com
-------------------------------------------------------------------------------Intro:
1:
2:
3:
4:
5:0 2
6:
0 1

2
2

0 2
1

Verso:
1:

0 1

2 3

2: 0s2s3 4
(Esta parte X2)

2
2
1 2

2 3

0s2s3 4

Coro:
1:
2:
3:
3
4
4: 0 2 3 4
4
4 0 2 3
5:
6:
El coro tambien se repite

3 2
3
3
0 2 3 4 2

Intermedio A:
F#m Bm D F#m Bm G
se repite el verso y el coro Y despues viene esto:
Intermedio B:
1:
2:
3:
4: 2 3 4
5:
6:
(esto X2)

3 5 8 7 5 3 5h7h5
2

y acaba asi:
Con Distorcion:
1:X
2:X
3:0
4:2
5:3

X 7s11 7s8 7
X
0
2
3

1:7h11 12 11 9 8
2:
3:

9 8 6 5
9 8

3 5 8 7

3
3

3
3

4:
5:
(esta ultima parte X 2)
Despues se toca esto hasta que acaba:
1:6
2:6
3:7
4:8
5:6
6:6

4
4
5
6
6
4

2
2
3
4
2
2

Y Por ultimo:
6: 0 2 3 4 2 0 2 5 4 0
-------------------------------------------------------------------------------Este fichero es trabajo propio de su transcriptor y representa su interpretacin p
ersonal de la cancin. El usuario se compromete a utilizar este material nicamente
para su aprendizaje y estudio personal. Para poder incluir este fichero en otro
sitio Web, es necesario mencionar la procedencia del mismo (www.atame.org) as com
o el nombre y correo del transcriptor.
--------------------------------------------------------------------------------

BENDECIDA **
( HEROES DEL SILENCIO )
Riff #1 (Intro):
Bm
E
Bm
A
2 times
E|------------------------------------------------------------||
B|------------------------------------------------------------||
G|------slide----------/6-7--6--------------------------------||
D|--9-9-9\----14-------/7------7---9--9-9--------7------------||
A|--9-9-9\----14--------7----------9--9-9--------7------------||
E|----------------------------------------------5-------------||
Distord A
A
E|-------5-----------------5----------------------------------|
B|-------5-----------------5----------------------------------|
G|--------6-----------------6---------------------------------|
D|---------7-----7 7-7--------7-----7-----7-------------------|
A|---------7-----7-7-7--------7-----7-----7-------------------|
E|-------5---5-5-----------5------5-----5---------------------|
E|------------------------------------------------------------|
B|--------------------5-5-------------------------------------|
G|--7-7-6----------------7------------------------------------|

D|-7------7---------7---- 7-----------------------------------|
A|------------------------------------------------------------|
E|------------------------------------------------------------|
Bm A
Bm
E|------------------------------------------------------------|
B|------------------------------------------------------------|
G|-----------------------------7-7-6--------------------------|
D|----------9-------7----7--7-------7------------9-----9------|
A|---9----9---------7---7-7-----------------9--9------9-------|
E|--7------------5-------------------------7---------7--------|
Change this x Riff3a 2nd time
<------ A----------> A
E|-------------------|-----------------------------------------|
B|-------------------|--------------------5-5------------------|
G|---6------7-7-6----|-------6---------------7-----------------|
D|---7--7--------7---|-------7-----7---7------7----------------|
A|---7---------------|-------7----7----------------------------|
add riff#3 first time
A
and go to second verse
E|-----------------------5------------------------------------||
B|----------5-----------5-------------------------------------||
G|-------6-----6--6-6-----------------------------------------||
D|-------7----------7-----------------------------------------||
A|------7-----------7-----------------------------------------||
E|---5--------------5-----------------------------------------||
Riff #3
Bm
E
Bm
Go to Second Verse
E|------------------------------------------------------------|
B|------------------------------------------------------------|
G|------slide-----------6-7--6--------------------------------|
D|--9-9-9\----14--------7------7---9--9-9---------------------|
A|--9-9-9\----14-------------------9--9-9---------------------|
E|------------------------------------------------------------|

Riff #3a
A
E|-------------------|
B|----------5-5------|
G|---6----------7----|
D|---7--7--------7---|
A|---7---------------|
E|--5----------------|
Chorus
Riff#4
D
E|------------------------------------------------------------|
B|----------7-------7----7-----7-------------7-------7--------|

G|------------7---------7-----7---------------7---------------|
D|------7-------7-----7----- 7--------7------- 7--------------|
A|---5----5-------5--5-------5-------5----5-------5-----------|
E|------------------------------------------------------------|
Bm
E|------------------------------------------------------------|
B|-----7----------7------9------7-----------7---------7-------|
G|-----7------------7-----------7-------------7---------------|
D|-----9-----9------ 9----------9-------9-------9-------------|
A|-----9------9--------9--------9---------9---------9---------|
E|--7------7----------------7--------7------------------------|
Bm
E
Bm
E|------------------------------------------------------------|
B|------------------------------------------------------------|
G|------slide-----------6-7--6--------------------------------|
D|--9-9-9\----14--------7------7---9--9-9---------------------|
A|--9-9-9\----14-------------------9--9-9---------------------|
E|-----------------------------------7------------------------|
A
E|----------------------|
B|----------------------|
G|------7-7-6-----------|
D|----7-------7---------|
A|----------------------|
E|----------------------|
Bm
E
Bm
E|------------------------------------------------------------|
B|------------------------------------------------------------|
G|------slide-----------6-7--6--------------------------------|
D|--9-9-9\----14--------7------7---9--9-9---------------------|
A|--9-9-9\----14-------------------9--9-9---------------------|
E|-----------------------------------7------------------------|
A
Goto 4th verse
E|------------------|
B|------------------|
G|------7-7-6-------|
D|----7-------7-----|
A|------------------|
E|------------------|
Riff #7 (Outro)
E|-----------------------------||-----------------------------|
B|-----------------------------||----------------------5-5----|
G|---------------------7-7-6---||--------------------------7--|
D|-----9---9---9-----7-------7-||------7----7----7---7---- 7--|
A|-----9---9---9---------------||------7----7----7------------|
E|--7----7---7-----------------||----5-----5----5-------------|

E|------------------------------------|
B|------------------------------------|
G|--------- --7-----6--7--------------|

D|---7--7---7----7--------7-----9-----|
A|---7--7-----------------------9-----|
E|-5---5---------------------7--------|