Sei sulla pagina 1di 3

Gabri

Vasco Rossi

E E E Q
E Q
H.
E E
E E E Q
E Q
E||----------------0--0----|--L-------------------|----------------0--0----|
B||-----------3------------|----------------------|-----------3------------|
G||--------0---------------|----------------------|--------0---------------|
D||-----2------------------|----------------------|-----0------------------|
A||--3---------------------|---------------3p--0--|--2---------------------|
E||------------------------|----------------------|------------------------|
H
E E E E
E E E Q
Q
E
H
H
--L--------------------|----------------0-------|--------------------|
-----------3-----------|-----------3---------1--|--L-----------------|
--------------0--------|--------0---------------|--------------------|
-----------------------|-----0------------------|--------------------|
--------------------0--|--1---------------------|--------------------|
-----------------3-----|------------------------|-----------3--------|
E E E Q
Q
E
E E E E H
E E E E E Q.
----------------0-------|-----------0-----------|-----------0--0h--1------|
-----------3---------3--|--------------3--------|--------3----------------|
--------0---------------|--------0--------------|-----2-----2-------------|
-----2------------------|-----2-----------------|--0----------------------|
--0---------------------|--0--------------------|-------------------------|
------------------------|-----------------------|-------------------------|
^
^
H.
E E
Q.
Q
E E E
E Q.
H
--L------------L--8--|---L------1----3--3--3--|--3s--4---------------|
------------------9--|---L--------------------|-------------L--------|
------------------8--|---L--------------------|----------------------|
---------------------|---L--------------------|----------------------|
---------------------|------------------------|----------------------|
---------------------|------------------------|----------------------|
E E E Q
E Q
E E Q
E Q.
Q
E E E E E E
-------------------------|------------------------|-------------------------|
---------5--3----5--5----|-----6-------6---5------|-------0--0--1--1--1--1--|
-------------------------|--L--5-------5h---------|-------0--0--0--0--0--0--|
--3s--5------------------|-----5-------5----------|-------0--0--0--0--0--0--|
-------------------------|------------------------|-------------------------|
-------------------------|------------------------|--3----------------------|
E E E E E Q.
-------------------------||
--2--2--2--2--2s--3------||
--0--0--0--0-------------||
--0--0--0--0-------------||
-------------------------||
-------------------------||

Here's part of Braido's solo


---------------------------|------------------------|-------------------|
--5---3----5---3----5----3-|-3h5--3--3h5--3--3h5--3-|-3h5--3--2----3-5--|
---------------------------|------------------------|-------------------|
---------------------------|------------------------|-------------------|
---------------------------|------------------------|-------------------|
---------------------------|------------------------|-------------------|
-----108-------------------|------------------------|-----------------------|
-6---108-10p8--------------|--------------------5-6-|-6/8-6p5-6p5------5--5-|
--------------9-7-----7-9--|-------------------5----|------------7-5-7---5--|
-----------------10-10---10|------------------------|-------------------7---|
---------------------------|-8----------------------|-----------------------|
---------------------------|------------------------|-----------------------|
-----------8-5-------------|----------|
----------8---8---------5-6|-6-8------|
-7-----------------4-5-7---|----------|
---------------5-7---------|----------|
---------------------------|----------|
---------------------------|----------|
Here's the song with chords :
C9
G6/B
Gm6/Bb
A7/4 A7
Adesso ascoltami non voglio perderti per. non voglio neanche illuderti
Dm
Fm
Fm
quest'avventura ? stata una follia ? stata colpa mia
C
G
tu hai sedici anni ed io... ed io
C9
G6/B
Gm6/Bb
Ma adesso spogliati che voglio morderti voglio sentire ancora il tuo
A7/4
A7
piacere esplodere con il mio
Dm
Fm
domani sar? tardi per rimpiangere la realt?
C
G
? meglio viverla ? meglio viverla
C9
G6/B
G6m/Bb
A7/4
A7
Adesso fermati non voglio perderti i tuoi sorrisi adesso non nasconderli
Dm
Fm
con le mie mani tra le gambe diventerai piu' grande
C
G
e non ci sar? piu' dio perch? ci sono io
Chorus : (Here starts the solo tabbed above )
F
Em
F
Gsus4 G
Gabri come sei splendida Gabri adesso smettila
C9
G6/B
non t'ho insegnato io quello che stai tacendo adesso da dio
Gm6/Bb
A7/sus4 A7
mi fai tremare il cuore, mi fai smettere di parlare
Dm
Fm
domani sar? tardi per rimpiangere la realt?
C
G
? meglio viverla ? meglio viverla

Dm Fm
Gabri

C G
Gabri

Here are the chords fingerings :


C9
: x32030 The chards aren't strummed so you'll have to find an
G6/B : x20030 acceptable arpeggio that fits the song.
Gm6/Bb: x10030
A7/4 : x02030
A7
: x02020
Dm
: xx0231
Fm
: xx3111
C
: x32010
G
: 320032
F
: 133211
Emin : 022000
Gsus4 : 320013