Sei sulla pagina 1di 19

Estudio en La Mayor (Op. 60 No.

3) - Matteo Carcassi (1792-1853)


Comps: 4/4
Andantino

||-----------2--------0-----------------|
||--------2--------2--------2--------2--|
|o-----2--------2--------2--------2-----|
|o--------------------------------------|
||--0--------------------------0--------|
||--------------------------------------|
1

|-----------2--------0-----------------|-----------5--------4----------------|
|--------3--------3--------3--------3--|--------3--------3--------3-------3--|
|-----4--------4--------4--------4-----|-----4--------4--------4-------4-----|
|--------------------------------------|-------------------------------------|
|--------------------------------------|-------------------------------------|
|--4--------------------------4--------|--0-------------------------0--------|
3

1/2 V ------------------------------|
--------|

1/2 II ---------------------

|-----------7--------5-----------------|-----------4--------2----------------|
|--------5--------5--------5--------5--|--------2--------2--------2-------2--|
|-----6--------6--------6--------6-----|-----2--------2--------2-------2-----|
|--------------------------------------|-------------------------------------|
|--0--------------------------0--------|--0-------------------------0--------|
|--------------------------------------|-------------------------------------|
2

II ---------------------------------|
|-----------2--------0-----------------|-------------------------------------|
|--------2--------2--------2--------2--|-----------5----------------4--------|
|-----0--------0--------0--------0-----|--------2--------2--------2-------2--|
|--------------------------------------|-----4--------4--------4-------4-----|
|--1--------------------------1--------|--2-----------------2----------------|
|--------------------------------------|-------------------------------------|
1

|-----------0------------------------|||-----------2--------0----------------|
|--------0--------0------------------|||--------0--------0--------0-------0--|
|-----1--------1---------------------0|0-----1--------1--------1-------1-----|
|--------------------2---------------0|0----------------------------2--------|
|------------------------------------|||-------------------------------------|
|--0---------------------------------|||--0----------------------------------|
1

II ------------------------------------------------------------------------|
|-----------4--------2-----------------|-----------3--------2----------------|
|--------2--------2--------2--------2--|--------2--------2--------2-------2--|
|-----2--------2--------2--------2-----|-----3--------3--------3-------3-----|
|-----------------------------2--------|----------------------------2--------|
|--------------------------------------|-------------------------------------|
|--0-----------------------------------|--0----------------------------------|
1

|-----------5--------4-----------------|-----------5--------4----------------|
|--------3--------3--------3--------3--|--------3--------3--------3-------3--|
|-----4--------4--------4--------4-----|-----4--------4--------4-------4-----|
|-----------------------------2--------|--3-------------------------3--------|
|--------------------------------------|-------------------------------------|
|--0-----------------------------------|-------------------------------------|
3

1/2 II -------------------------------|
|-----------5-----------------5-----2--|-----------7----------------8--------|
|--------2--------2--------2-----2-----|--------7--------7--------7-------7--|
|-----2--------2--------2--------------|-----7--------7--------7-------7-----|
|--4-----------------4-----------------|--0-----------------0----------------|
|--------------------------------------|-------------------------------------|
|--------------------------------------|-------------------------------------|
3

IX ----------------|
|------------9--------------------0--|-----------2--------0----------------|
|---------9---------9----------0-----|--------2--------2--------2-------2--|
|-----10--------10-------------------|-----2--------2--------2-------2-----|
|----------------------11--12--------|-------------------------------------|
|------------------------------------|--0--------------------------0-------|
|--9---------------------------------|-------------------------------------|
1

|-----------5--------4-----------------|-----------2--------0----------------|

|--------3--------3--------3--------3--|--------0--------0--------0-------0--|
|-----4--------4--------4--------4-----|-----1--------1--------1-------1-----|
|--------------------------------------|-------------------------------------|
|--0--------------------------0--------|--0-------------------------0--------|
|--------------------------------------|-------------------------------------|
2

1/2 V -------------------------------|
|-----------7--------5-----------------|-----------7--------6----------------|
|--------5--------5--------5--------5--|--------5--------5--------5-------5--|
|-----6--------6--------6--------6-----|-----6--------6--------6-------6-----|
|-----------------------------7--------|--4-------------------------4--------|
|--0-----------------------------------|-------------------------------------|
|--------------------------------------|-------------------------------------|
2

1/2 VII -----------------------------|


|-----------9--------7--------10-------|-----------1----------------0-------|
|--------7--------7--------7---------7-|--------0--------0--------3-------0-|
|-----7--------7--------7---------7----|-----2--------2--------1-------1----|
|--0-----------------------------------|--1-----------------2---------------|
|--------------------------------------|------------------------------------|
|--------------------------------------|------------------------------------|
1

1/2 V -------------|
|-----------5-------------------------||
|--------5--------5-------------------||
|-----6--------6----------------------o|

|--------------------7----------------o|
|--0----------------------------------||
|-------------------------------------||
2

------------------------------------------------------------.----.
-|o o|-|o o|-|o o|\____/
|__|
|__|
|A_| Gua del Guitarrista
|T_| roberto8ag@atame.org
|A_| guia.atame.org
|M_|
|E_| - Pieza de la Semana
|__|
__|__|__
' |__| '
|__|
------------------------------------------------------------ROMANCE - Annimo del Siglo 19, espaol
Tonalidad.: Em
Comps....: 3/4
Moderately
||-7--------7--------7--------|--7--------5--------3--------|--3-------2--------0--------|
||----0--------0--------0-----|-----0--------0--------0-----|-----0-------0--------0-----|
|o-------0--------0--------0--|--------0--------0--------0--|-------0--------0--------0--|
|o----------------------------|-----------------------------|----------------------------|
||----------------------------|-----------------------------|----------------------------|
||-0--------------------------|--0--------------------------|--0-------------------------|
4

|--0--------3--------7--------|-12-------12-------12--------|-12------10--------8--------|

|-----0--------0--------0-----|-----0--------0--------0-----|-----0-------0--------0-----|
|--------0--------0--------0--|--------0--------0--------0--|-------0--------0--------0--|
|-----------------------------|-----------------------------|----------------------------|
|-----------------------------|-----------------------------|----------------------------|
|--0--------------------------|--0--------------------------|--0-------------------------|
1
2

1/2 C V ----------------------------------------------------------------

C VII -

|--8--------7--------5--------|--5--------7--------8--------|--7-------8--------7--------|
|-----5--------5--------5-----|-----5--------5--------5-----|-----7-------7--------7-----|
|--------5--------5--------5--|--------5--------5--------5--|-------8--------8--------8--|
|-----------------------------|-----------------------------|----------------------------|
|--0--------------------------|--0--------------------------|----------------------------|
|-----------------------------|-----------------------------|--7-------------------------|
3

4
1

1
2

1
1

3
1

1
2

1
-------------------------|-11--------8--------7--------|--7--------5--------3--------|--3-------2--------0--------|
|-----7--------7--------7-----|-----0--------0--------0-----|-----0-------0--------0-----|
|--------8--------8--------8--|--------0--------0--------0--|-------0--------0--------0--|
|-----------------------------|-----------------------------|----------------------------|
|-----------------------------|-----------------------------|----------------------------|
|--7--------------------------|--0--------------------------|--0-------------------------|
4

1
1

|--2--------2--------2--------|--2--------3--------2--------|--0-------0--------0--------|

|-----0--------0--------0-----|-----0--------0--------0-----|-----0-------0--------0-----|
|--------2--------2--------2--|--------2--------2--------2--|-------0--------0--------0--|
|-----------------------------|--1--------------------------|--2-------------------------|
|--2--------------------------|-----------------------------|----------2-----------------|
|-----------------------------|-----------------------------|-------------------3--------|
4

3
4

|--0-------------------------||
|----------------------------||
|----------------------------o|
|----------------------------o|
|----------------------------||
|--0-------------------------||

C II ------------------||-4--------4--------4--------|--4--------2--------0--------|----------------------------|
||----0--------0--------0-----|-----0--------0--------0-----|--5-------4--------4--------|
|o-------1--------1--------1--|--------1--------1--------1--|-----2-------2--------2-----|
|o----------------------------|-----------------------------|-------4--------4--------4--|
||----------------------------|-----------------------------|--2-------------------------|
||-0--------------------------|--0--------------------------|----------------------------|
4

4
1

1
4

4
1

3
1

-------------------------------------------

C VII --------------------------------

|-----------------------------|--9--------9--------9--------|--9------11--------9--------|
|--4--------3--------4--------|-----7--------7--------7-----|-----7-------7--------7-----|
|-----2--------2--------2-----|--------8--------8--------8--|-------8--------8--------8--|
|--------4--------4--------4--|-----------------------------|----------------------------|
|--2--------------------------|-----------------------------|----------------------------|

|-----------------------------|--7--------------------------|--7-------------------------|
4

4
1
1

1
2

3
3

2
1

1
2

1
1/2 C IX --------------

--|--9--------7--------7--------|--7--------9-------11--------|-12------12-------12--------|
|-----9--------9--------9-----|-----9--------9--------9-----|-----9-------9--------9-----|
|--------9--------9--------9--|--------9--------9--------9--|-------9--------9--------9--|
|-----------------------------|-----------------------------|----------------------------|
|-----------------------------|-----------------------------|----------------------------|
|--0--------------------------|--0--------------------------|--0-------------------------|
4

4
1

3
1

2
4

1
1

3
1

------------------------------------------------------------------1/2 C V -------|-12-------11-------10--------|--9--------9--------9--------|--9-------7--------5--------|
|-----9--------9--------9-----|----10-------10-------10-----|----10-------5--------5-----|
|--------9--------9--------9--|--------9--------9--------9--|-------9--------6--------6--|
|-----------------------------|-----------------------------|----------------------------|
|-----------------------------|--0--------------------------|--0-------------------------|
|--0--------------------------|-----------------------------|----------------------------|
3

4
1

1
2

1
1

3
1

1
2

C II -------------------------------------------------|--4--------4--------4--------|--4--------5--------2--------|--0-------0--------0--------|
|-----4--------4--------4-----|-----4--------4--------4-----|-----0-------0--------0-----|
|--------2--------2--------2--|--------2--------2--------2--|-------1--------1--------1--|
|-----------------------------|-----------------------------|----------------------------|

|--2--------------------------|--2--------------------------|----------------------------|
|-----------------------------|-----------------------------|--0-------------------------|
4

1
1

|--0-------------------------||
|----------------------------||
|----------------------------o|
|----------------------------o|
|----------------------------||
|--0-------------------------||

------------------------------------------------------------.----.
-|o o|-|o o|-|o o|\____/
|__|
|__|
|A_| Gua del Guitarrista
|T_| roberto8ag@atame.org
|A_| www.atame.org/guitarrista
|M_|
|E_| - Pieza de la Semana
|__|
__|__|__
' |__| '
|__|
------------------------------------------------------------Bourree - Suite para Lad No. 1 en Mi Menor (BWV 996)
Johann S Bach (1685-1750)

|---0--2--||--3----2--0-------0--2--|------------------------|
|---------||-------------4----------|--0----2--4--5----3--1--|
|---------|o------------------------|------------------------|
|---------|o------------------------|------------------------|
|---------||-------0-----2----0-----|------------------------|
|---3--2--||--0---------------------|--3----2-----0----2-----|
2

1
1

4
1

1
2

1
1

4
2

|------------------------|---------------------0--2--|--3----2--0------0--2--|
|--0---------------------|--0------------------------|-------------4---------|
|-------2--0-------0--2--|-----2--0------------------|-----------------------|
|-------------4----------|------------4--2-----------|-----------------------|
|-------0-----2----0-----|--------2------------------|-------0-----2---0-----|
|--3---------------------|--3------------0--2--3--2--|--0--------------------|
2

1
3

1
+-------------------------+
|-----------------------|------------------------|-------------------0--2--||
|--0----2--4--5----3--1-|--0---------------------|-------------------------||
|-----------------------|-------2--0----------0--|--0----------------------o|
|-----------------------|-------------4----------|--0----------------------o|
|-----------------------|-------3-----5---5------|--2----------------------||
|--3----2-----0----2----|--3---------------------|--3----------------3--2--||
1

1
2

2
1

2
+------------------------+
|------------------------||-------------------3----|--0--------------------|
|------------------0-----||--3-------1--0--------3-|----------3------------|
|--0------------------0--|o-------2----------------|-------4-----5---4--2--|
|--0---------------------|o-------0----------------|-----------------0-----|
|--2---------------------||-------------------2----|--3----------0---------|
|--3---------------3-----||--2----------3----------|-------4---------------|
3

2
1
3

4
3

4
2

3
1

|------------------------|--------------------------|-------3-----0---------|
|----------0--1----0-----|--------------------3-----|--0-------3---------3--|
|--1----2-------------2--|--2--------------------2--|-----------------4-----|
|--2----------2----------|--------------------0-----|-----------------------|
|-------0----------------|--0-h2--0-----------------|-------2-----3---------|
|------------------0-----|-----------3--2-----------|--3--------------4-----|
3

1
1
2

4
1

|-------5-------------0--|------------------------|------------------7-----|
|----------5--7----2-----|--3----2--0----------0--|--0------------------7--|
|--5---------------------|-------------3----------|------------------------|
|-------------0----------|-------2-----4----------|------------------------|
|--0----4----------1-----|--2---------------------|--2-h1--2--4--6---------|
|------------------------|------------------2-----|------------------7-----|
1

3
1

|-------------5----------|-------------3----------|-------5--0--2---------|
|--9----7--5-------5--8--|--7----5--3-------3--6--|--5--------------2--5--|
|------------------------|------------------------|-----------------------|
|-------0----------------|--0---------------------|-----------------------|
|--7----------4----0-----|-------3-----2----------|--3----2-----0---------|
|------------------------|------------------3-----|-----------------2-----|
4

4
1

|-------------------0-----|--------------------------|
|--4----0--------------0--|--1-----3-----0-----1-----|
|-------------------------|-----------2-----------0--|
|-------------------------|-----2--4--------1--2-----|
|--2-------3--2-p0--------|--0-----------------------|
|-------------------4-----|--------------3-----------|
4
1

1
2

2
3

1
3

1
2
1
+-------------

---------+
|-------------------------|----------------------------|---------------------||
|--------0----------------|----------------------------|---------------0-----||
|--2----------------------|----------------------------|------------------0--o|
|-----------4--5----4--2--|--1----2--4--5----4h5p4--2--|--2------------------o|
|-----4--6----------0-----|--2----0-----2--------------|---------------------||
|--2-----------0----------|----------------------------|--0------------3-----||
1
1

1
3

1
2

4
1

3 4 3

2
+------------------------+
|-----------------------||
|-----------------------||
|-----------------------||
|--2--------------------||
|-----------------------||
|--0--------------------||
2

------------------------------------------------------------.----.
-|o o|-|o o|-|o o|\____/
|__|
|__|
|A_| Gua del Guitarrista
|T_| roberto8ag@atame.org
|A_| guia.atame.org

|M_|
|E_| - Pieza de la Semana
|__|
__|__|__
' |__| '
|__|
------------------------------------------------------------LOVE STORY
----------Transcripcin, arreglo y digitacin por Roberto Ochoa
Tonalidad.: Am
Comps....: 4/4

||-8--0--0--8--8--------|---0--0--8--8--0--1--0--|----------7--7------|
||----------------------|------------------------|-3--3--3------------|
|o----------------------|------------------------|--------------------|
|o----------------------|------------------------|--------------------|
||-0-----------0------0-|------------0-----------|--------------------|
||------------------0---|------------------------|-0-----------0------|
4
4 4
4 4
1
1 1 1 4 4

|---------7--7-----0-----|----------5--5-------|---------5--5----------|
|---3--3--------3-----3--|-1--1--1-------------|---1--1--------1--3-1--|
|------------------------|---------------------|-----------------------|
|------------------------|---------------------|-----------------------|
|------------------------|-0-----------0-------|------------0----------|
|------------0-----------|-----------------3---|-1---------------------|
1 1 4 4 1
3
1 1 1 4 4
1
1 2 2 4 4 1 3 1

*%*
1------------------------------------------|----------4--4-------|--------5----7---------|-0-------------------||
|-0--0--0-------------|------------------6----|-1-------------------||
|---------------------|-----------------------|-2-------------------o|
|---------------------|-----------------------|---------------------o|
|---------------------|-----------------------|-0-------------------||
|-0-----------0-------|-----------------------|---------------------||
1 1
1
3
2
1
2

2 ------------------|--------5----7----4----|--9------------------|-------------0--------|
|-----------------------|---------------------|--------3-------------|
|-----------------------|---------------------|------------------2---|
|-----------------------|---------------------|----------------------|
|-----------------------|--0------------------|----------------------|
|-----------------------|---------------------|----------------------|
2
3
1
4
3
2

|-1-----------------|-----------------1-----|-0-----------0-----|
|-------------3-----|----0--0------3-----3--|-------------------|
|----------2-----2--|-2---------------------|----------0-----0--|
|-0-----------------|-----------------------|-------------------|
|-------------------|-----------------------|-3-----------------|
|-------------------|-3---------------------|-------------------|
1
2 3 2
2
4 1 4
3
3

|---------------0-----|-------------------|---------0--------0--|
|------------1-----1--|-3-----------3-----|-1-----3-------1-----|
|-0--2--2-------------|----------4-----4--|------------2--------|
|---------------------|-------------------|---------------------|
|---------------------|-------------------|-0-------------------|
|-1-------------------|-0-----------------|---------------------|
1 3 3
2
2
2
3 2 3
1
4
3 1

|-1-----------------|----------------------|-------------------|
|----------------1--|-1----0------1--3-----|-------------------|
|----------0--2-----|----------------------|----------------0--|
|-0-----------------|-------------------3--|-2--------2--3-----|
|-------------------|----------------------|-3-----------------|
|-------------------|-3--------------------|-------------------|
1
2 1
1
1 4 3
2
2 3
3
3

|---------------------|-------------------|-0------------------|
|-0-------------------|-0-----------------|--------------------|
|------2--------0-----|-2-----------2-----|-1------------------|
|-----------------3-2-|-1--------4-----4--|--------------------|
|---------------------|-2-----------------|--------------------|
|-1-------------------|-------------------|-0------------------|
1
3 2
4 2 4
1

|-------------------||---------------------|
|-------------------||---Se vuelve a-------|
|-------------------||---tocar la primera--|
|-------------------||---parte-------------|
|-------------------||---------------------|
|-------------------||---------------------|

*%*
|-4----5----7----4----|-5----------------|-----------------||
|---------------------|-5----------------|-----------------||
|---------------------|-5----------------|-----------------||
|---------------------|------------------|-----------------||
|---------------------|-0----------------|-----------------||
|-0-------------------|------------------|-----------------||
1
2
4
1
1 (cejilla)

-----------------------------------------------------.----.
-|o o|-|o o|-|o o|\____/
|__|
|__|
|A_| Gua del Guitarrista
|T_| roberto8ag@atame.org
|A_| www.atame.org/guitarrista
|M_|
|E_| - Pieza de la Semana
|__|
__|__|__
' |__| '
|__|
--------------------------------------------------------

Triadas
C
D
E
F
G
A
B

(X32010)
(XX0232)
(022100)
(133211)
(320033)
(X02220)
(X13331)

F
G
A
Bb
C
D
E

(133211)
(320033)
(X02220)
(X13331)
(X32010)
(XX0232)
(022100)

G7
A7
B7
C7
D7
E7
F#7

(320001)
(X02020)
(X21202)
(X32310)
(XX0212)
(020100)
(255422)

Am

(X02210)

Dm

(XX0231)

G7

Bm

(X14421)

Em

(022000)

A7

F#m (244222)

B7

Circulos Armnicos
C
(X32010)
(320001)
D
(XX0232)
(X02020)
E
(022100)
(X21202)

C#m (X35543)

F
(133211)
(X32310)
G
(320033)
(XX0212)
A
(X02220)
(020100)
B
(X13331)
(242322)

Dm

(XX0231)

Gm

(355333)

C7

Em

(022000)

Am

(X02210)

D7

F#m (244222)

Bm

(X24432)

E7

G#m (X46654)

C#m (X46644)

F#7

Am

(X02210)

(133211)

G7

Bm

(X14421)

(320033)

A7

C#m (X35543)

(X02220)

B7

Dm

(XX0231)

Bb

(X13331)

C7

Em

(022000)

(X32010)

D7

F#m (244222)

(XX0232)

E7

G#m (X46654)

(022100)

F#7

Bb7
C7
D7
Eb7
F7
G7
A7

Ab
Bb
C
Db
Eb
F
G

Circulos Meldicos
C
(X32010)
(320001)
D
(XX0232)
(X02020)
E
(022100)
(X21202)
F
(133211)
(X32310)
G
(320033)
(XX0212)
A
(X02220)
(020100)
B
(X13331)
(240302)

Cuartas Menores
Cm
Dm
Em
Fm
Gm
Am
Bm

Fm
Gm
Am
Bbm
Cm
Dm
Em

Eb
F
G
Ab
Bb
C
D

Fm
Gm
Am
Bbm
C
Dm
Em

G7
A7
B7
C7
D7
E7
F#7

Fluidez en tus Manos


por Tincho Slash
Qu tal?. Mi nombre es Martin, soy de Mendoza, tengo 20 aos y hace dos que toco el
bajo y la guitarra. Lo que te mando es para desarrollar fuerza y agilidad.
Desde las cuerdas [6,5,4,3], y los primeros cuatro trastes con los dedos (1,2,3,4)
respectivamente, hacer para guitarra:

3
4
5
6

/-----------------4---/------------3--------/-------2-------------/--1-------------------

SEGUIDO DE

3
4
5
6

/--1----2----3----4---/---------------------/---------------------/----------------------

3 /--1--------------------------SEGUIDO DE
---------

4 /-------2--------------

3 /------------SEGUIDO DE

4 /-------------

5 /------------3---------

5 /-------------

6 /-----------------4----

6 /--1----2----

--------3----4----

Todo sto se hace como un solo ejercicio, es decir, se hacen los cuatro dibujos al vez
empezando en ese orden y lo ms rpido posible. Hacerlo un montn de veces hasta que
te canses y si recien estas empezando te va a dar mucha agilidad en la mano con que
digites (zurdo o derecho).
Tambin para guitarra puedes hacer lo siguiente:

II

5 /------2-----1-----4--6 /---1-----4-----2------

5 /------3-----1-----4--6 /---1-----4-----3------

Ambos se hacen muy rpido y en las cuerdas 5 y 6. Los dibujos son muy parecidos,
nada ms que en el segundo tocas en el traste 4 en vez de tocar en el 3 como el primero.
Los dos ltimos son iguales a los anteriores pero dejamos una cuerda de por medio y en
el ltimo empiezas de abajo hacia arriba (de derecha a izquierda, si tocascomo derecho):

I
4 /-----2----4--1----3----5 /-----------------------6 /--1----3-------2-----4--

II
4 /--4--2--------3-----1-5 /----------------------6 /--3-----1--4-----2-----

Haganlo y tendrn ms fluidez en sus manos. Espero les que les guste.

La Tablatura - Estructura y Pisadas

La tablatura es un mtodo de representar la msica por medio de diagramas que


muestran al intrprete dnde poner los dedos en el diapasn del instrumento, en
lugar de sealar el sonido y el ritmo que se producen como ocurre en la partitura.
Estructura de la Tablatura
Est integrada por 6 lneas que representa las seis cuerdas de la Guitarra. La lnea
de arriba representa la primera cuerda, o la ms delgada de la Guitarra, mientras
que la lnea de abajo representa la sexta, o la ms gruesa de la Guitarra. Una lnea
vertical indica el principio o final de un comps y la doble lnea vertical indica el
final de la tablatura. Como se puede ver en el ejemplo:
1ra.
2da.
3ra.
4ta.
5ta.
6ta.

cuerda
cuerda
cuerda
cuerda
cuerda
cuerda

e
B
G
D
A
E

|----------------------------------||
|----------------------------------||
|----------------------------------||
|----------------------------------||
|----------------------------------||
|----------------------------------||

\
Esta es la cuerda
ms gruesa
Las letras e, B, G, D, A y E indican el nombre de la nota que produce la
cuerda tocada al aire, de la ms delgada a la ms gruesa. La 'e' minscula
es la nota de Mi pero ms aguda (dos octavas ms). A veces se ven stas
letras en las tablaturas y otras veces no. La razn de que no las lleva es
que esta es la afinacin estndar y se da por entendido que es de esta
forma.

Las Pisadas
Los nmeros que encontremos sobre cada lnea indican el espacio en donde se debe
pisar la cuerda con los dedos de la mano izquierda, y tocarla con la mano derecha.
Por ejemplo, si el nmero 3 sta sobre la 2da. lnea, significa que debemos tocar
(hacer sonar) la 2da. cuerda pisada en el 3er. espacio (o traste). El "0" (cero)
indica que se debe tocar la cuerda al aire (sin pisarla).
|-----------------------------------------||
|-------3---------------------------------||
|-----------------------------------------||
|-----------------------------------------||
|-----------------------------------------||
|-----------------------------------------||

Cuando se presente un nmero fuera de la tablatura (generalmente abajo), en este


caso el 2, indica con cual dedo de la mano izquierda debe ser presionada la
posicin que te indica en la tablatura.
El nmero 1 indica el dedo ndice de la mano izquierda.
El nmero 2 indica el dedo medio de la mano izquierda.
El nmero 3 indica el dedo anular de la mano izquierda.
El nmero 4 indica el dedo meique de la mano izquierda.
Cuando se quiere que dos o ms cuerdas suenen al mismo tiempo se ponen los
nmeros en vertical, de sta forma:
|-----------------------------------------||
|-----------1-----------------------------||
|-----------0-----------------------------||
|-----------2-----------------------------||
|-----------3-----------------------------||
|-----------------------------------------||

La siguiente tablatura te indica que debes tocar una secuencia de notas, en esta
caso la escala de Do mayor. Las notas son Do, Re, Mi, Fa, Sol, La, Si y Do (C, D, E,
F, G, A, B, C):
|-----------------------------------------||
|------------------------------0---1------||
|----------------------0---2--------------||

|----------0---2---3----------------------||
|------3----------------------------------||
|-----------------------------------------||

Cuando se presentan nmeros fuera de la tablatura (generalmente abajo), indican


con que dedos de la mano izquierda deben ser presionadas las posiciones que te
indica la tablatura. El nmero 1 indica el dedo ndice, el 2 el dedo medio, el 3 el
dedo anular y el 4 el dedo meique.
Ahora, en la siguiente tablatura ya no slo te indica que notas debes tocar, sino
tambin con que dedo de la mano izquierda debes pisar cada una de ellas. La
siguiente secuencia de notas pertenece a la escala de Re mayor:
|--------------------------0--2--3--5--7--9--10--||
|-----------------0--2--3------------------------||
|-----------0--2---------------------------------||
|--0--2--4---------------------------------------||
|------------------------------------------------||
|------------------------------------------------||
1 3
1
1 2
1 2 4 1 3
4

La Duracin de Sonido
Este es el aspecto donde difiere ms con la partitura. La mayora de las tablaturas
no te dan informacin sobre la duracin de las notas, aunque esto no es de vital
importancia
Pero, si es posible intentar algo. En los ejemplos anteriores los nmeros estn
separados en iguales distancias entre si, as que podemos asumir que todas las
notas tienen la misma duracin de sonido. El espacio entre los nmeros te indicar
cual nota dura ms que otra. En los ejemplos siguientes notars el buen objetivo de
separar los nmeros segn la duracin de cada nota:
Cielito Lindo
|-------------------------------------------------------------|
|--1--1--------0-----1--1--------0-----1--1--------0----------|
|--------2--------0--------2--------0--------2--------0-------|
|--------------------------------------------------------3--0-|
|-------------------------------------------------------------|
|-------------------------------------------------------------|