Sei sulla pagina 1di 3

Tuning: Drop A to G

Capo III

(I have no idea what that would be called)

Intro
Bb
Bbmaj7
Eb
Bb
Bbmaj7
Eb
e------------------|--------------------|------------------|--------------------|
B----0-0---0-0-----|----3-3-------1-1---|----0-0---0-0-----|----3-3-------1-1---|
G------------------|--------------------|------------------|--------------------|
D----0-0---0-0-----|----4-4-------2-2---|----0-0---0-0-----|----4-4-------2-2---|
G--0-----0---------|--0---------0-------|--0-----0---------|--0---------0-------|
E------------------|--------------------|------------------|--------------------|
Verse
Your eyes are full
Bb
Bbmaj7
Eb
e------------------|--------------------|------------------|--------------------|
B----0-0---0-0-----|----3-3-------1-1---|----0-0---0-0-----|----3-3-------1-1---|
G------------------|--------------------|------------------|--------------------|
D----0-0---0-0-----|----4-4-------2-2---|----0-0---0-0-----|----4-4-------2-2---|
G--0-----0---------|--0---------0-------|--0-----0---------|--0---------0-------|
E------------------|--------------------|------------------|--------------------|
At me in that wondering way.
Eb
Eb
Csus2
C
e------------------|-----------------|------------------|----------|
B----5-5---5-5-----|----5-5----5-5---|-----0-0----0-0---|---2------|
G------------------|-----------------|------------------|----------|
D----5-5---5-5-----|----5-5----5-5---|-----2-2----2-2---|---2------|
G--5-----5---------|--5-----5--------|---2------2-------|----------|
E------------------|-----------------|------------------|----------|
It is as if
Bb
Bbmaj7
Eb
e------------------|--------------------|------------------|--------------------|
B----0-0---0-0-----|----3-3-------1-1---|----0-0---0-0-----|----3-3-------1-1---|
G------------------|--------------------|------------------|--------------------|
D----0-0---0-0-----|----4-4-------2-2---|----0-0---0-0-----|----4-4-------2-2---|
G--0-----0---------|--0---------0-------|--0-----0---------|--0---------0-------|
E------------------|--------------------|------------------|--------------------|
Conspiring, converging.
Eb
Eb
Csus2
C
e------------------|-----------------|------------------|---------------------|
B----5-5---5-5-----|----5-5----5-5---|-----0-0----0-0---|---2---------3-2-----|
G------------------|-----------------|------------------|-------0-------------|
D----5-5---5-5-----|----5-5----5-5---|-----2-2----2-2---|---2------2------2---|
G--5-----5---------|--5-----5--------|---2------2-------|---------------------|
E------------------|-----------------|------------------|---------------------|

Chorus
Eb
Bb
D
Gm7
e------------------|-----------------|-----------------|-------------------------|
B----5-5---5-5-----|----0-0----0-0---|----4-4----4-4---|----------03------------|
G------------------|-----------------|-----------------|--------0----------------|
D----5-5---5-5-----|----0-0----0-0---|----4-4----4-4---|-------------------------|
G--5-----5---------|--0-----0--------|--4------4-------|------4------------------|
E------------------|-----------------|-----------------|---0---------------------|
Eb
Bb
D
F
Cm
e------------------|-----------------|-----------------|------------------|
B----5-5---5-5-----|----0-0----0-0---|----7-7----5-5---|-----3-3-----1-1--|
G------------------|-----------------|-----------------|------------------|
D----5-5---5-5-----|----0-0----0-0---|----7-7----5-5---|-----4-4-----2-2--|
G--5-----5---------|--0-----0--------|--7------5-------|---4-------2------|
E------------------|-----------------|-----------------|------------------|

Verse 2 (same as verse 1)


Youre ruining me
Bb
Bbmaj7
Eb
e------------------|--------------------|------------------|--------------------|
B----0-0---0-0-----|----3-3-------1-1---|----0-0---0-0-----|----3-3-------1-1---|
G------------------|--------------------|------------------|--------------------|
D----0-0---0-0-----|----4-4-------2-2---|----0-0---0-0-----|----4-4-------2-2---|
G--0-----0---------|--0---------0-------|--0-----0---------|--0---------0-------|
E------------------|--------------------|------------------|--------------------|
Playing the chords in me
Eb
Eb
Csus2
C
e------------------|-----------------|------------------|---------------------|
B----5-5---5-5-----|----5-5----5-5---|-----0-0----0-0---|---2---------3-2-----|
G------------------|-----------------|------------------|-------0-------------|
D----5-5---5-5-----|----5-5----5-5---|-----2-2----2-2---|---2------2------2---|
G--5-----5---------|--5-----5--------|---2------2-------|---------------------|
E------------------|-----------------|------------------|---------------------|

Chorus
You sing me to sleep
Eb
Bb
D
Gm7
e------------------|-----------------|-----------------|-------------------------|
B----5-5---5-5-----|----0-0----0-0---|----4-4----4-4---|----------03------------|
G------------------|-----------------|-----------------|--------0----------------|
D----5-5---5-5-----|----0-0----0-0---|----4-4----4-4---|-------------------------|
G--5-----5---------|--0-----0--------|--4------4-------|------4------------------|
E------------------|-----------------|-----------------|---0---------------------|
You could be the thief
Eb
Bb
D
e------------------|-----------------|-----------------|------------------|
B----5-5---5-5-----|----0-0----0-0---|----7-7----7-7---|-----7-7-----7-7--|
G------------------|-----------------|-----------------|------------------|
D----5-5---5-5-----|----0-0----0-0---|----7-7----7-7---|-----7-7-----7-7--|
G--5-----5---------|--0-----0--------|--7------7-------|---7-------7------|
E------------------|-----------------|-----------------|------------------|

Bridge
It fits in your hand like the water in rain
Eb
Bb
D
G5
G7
Eb
Eb
D
G5
G7
e--------------------|-----------------------|--------------------|-----------------------|
B----5-5-----0-0-----|----4-4-------0--------|----5-5-----0-0-----|----4-4-------0--------|
G--------------------|-----------------------|--------------------|-----------------------|
D----5-5-----0-0-----|----4-4-------2----0---|----5-5-----0-0-----|----4-4-------2----0---|
G--5-------0---------|--4--------------------|--5-------0---------|--4--------------------|
E--------------------|-----------0-----------|--------------------|-----------0-----------|

Rather than wait 'till I...


Eb
Bb
D
G5
G7
e--------------------|-----------------------|
B----5-5-----0-0-----|----4-4-------0--------|
G--------------------|-----------------------|
D----5-5-----0-0-----|----4-4-------2----0---|
G--5-------0---------|--4--------------------|
E--------------------|-----------0-----------|
Youre breaking
Csus2
C
Eb
Bb
|---------------------|---------------------|------------------|-----------------|
|----------0----------|---2--------3-2------|--------3---------|--7--------------|
|------0------0-------|------0--------------|------5---5-------|-----------------|
|--------2------2-----|---------2------2----|----5-------5-----|--7--------------|
|---2-----------------|---------------------|--5---------------|--7--------------|
|------------------|------------------------|------------------|-----------------|

"And Im letting you.


Bb
Bbmaj7
Eb
Bb
Bbmaj7
Eb
e------------------|--------------------|------------------|--------------------|
B----0-0---0-0-----|----3-3-------1-1---|----0-0---0-0-----|----3-3-------1-1---|
G------------------|--------------------|------------------|--------------------|
D----0-0---0-0-----|----4-4-------2-2---|----0-0---0-0-----|----4-4-------2-2---|
G--0-----0---------|--0---------0-------|--0-----0---------|--0---------0-------|
E------------------|--------------------|------------------|--------------------|

Your eyes are full


Bb
Bbmaj7
Eb
Bb
Bb
e------------------|--------------------|---------------|---|
B----0-0---0-0-----|----3-3-------1-1---|----0-0----0-0-|---|
G------------------|--------------------|---------------|---|
D----0-0---0-0-----|----4-4-------2-2---|----0-0----0-0-|---|
G--0-----0---------|--0---------0-------|--0------0-----|-0-|
E------------------|--------------------|---------------|---|

Hope it sounds right to you. : )


~Champita