Sei sulla pagina 1di 4

Aquarelle Suite: 2 Valseana - Sergio Assad (1952-)

tabbed by Lei Shan (October 2011)


tuning - D A D G B E
E E E E E E
E E E E E E
E E E E E E
E||--0-----2-----3-----|--5------------------|--0-----2-----3-----|
B||--------2-----------|--------2h--3--2-----|--------2-----------|
G||-----0-----4--2--0--|------------------2--|-----0-----4--2--0--|
D||--------------------|--------4------------|--------------------|
A||--0-----------------|-----0---------------|--0-----------------|
D||--------------------|--0------------------|--------------------|
E E E E E E
E E E E E E
E E E E E E
--5------------------|--0-----2-----3-----|--5--------------5--|
--------2h--3--2-----|--------2-----------|--------5--3--------|
------------------2--|-----0-----4--2--0--|--------------5-----|
--------4------------|--------------------|--------3-----------|
-----0---------------|--0-----------------|-----3--------------|
--0------------------|--------------------|--3-----------------|
^
E E E E E E
E E E E E E
E E E E E E
--5-----3--------1--|--0-----------------|--0--2--3--5--7--10--|
--------3-----------|-----------3--2--3--|-----0------------7--|
-----0-----2--0-----|--------0-----------|--0--------0---------|
--------------1-----|-----2--------4-----|--------2---------9--|
--------------------|--0-----------------|--0-----------0------|
--1-----------------|--------------------|---------------------|
|---3--|
E E S S S E E E
E E E E E E
E E E E E E
--9--10--9h-10p-9------------|--4-----------------|--3-----2-----------|
----------------------10-----|--------5-----------|-----------------3--|
---------9-------------------|--------4-----------|--------2-----0-----|
------------------12--11-----|-----------7--6-----|-----------4--------|
--------------------------0--|-----4-----------4--|-----2--------0-----|
--0--------------------------|--4-----------------|--2-----------------|
|---3--|
E E E E Q
E E S S S E E E
E E E E E E
--0-----4----------|--9--10--9h-10p-9------------|--4-----------------|
--------0----------|----------------------10-----|--------5-----------|
--------6----------|---------9-------------------|--------4-----------|
-----4-----4-------|------------------12--11-----|-----------7--6-----|
-----0--------0----|--------------------------0--|-----4-----------4--|
--0----------------|--0--------------------------|--4-----------------|
E E E E E E
E E E E E E
E E E E E E
--3-----2-----------|--0-----------2-----|--0-----------------|
-----------------3--|-----------3-----3--|-----------2-----3--|
--------2--0--------|--------4-----4-----|--------4-----3-----|
--------------4-----|-----5--------5-----|-----5--------5-----|

-----2--------------|--0-----------------|--0-----------------|
--2-----------------|--------------------|--------------------|
E E E E E E
E E E E E E
E E E E E E
--0--------------0--|--0--------------0--|--2--------0-----2--|
-----------3--------|-----------3--------|-----------3--------|
-----------6--------|-----------5--------|-----------4--------|
--------4-----4-----|--------4-----4-----|--------5-----5-----|
-----0--------------|-----0--------------|-----2--------------|
--0-----------------|--0-----------------|--0-----------------|
E E E E E E
E E E E E E
E E E E E E
--3--------------3--|--5-----------------|----------------------|
-----------6--------|-----------6-----3--|--10------------------|
--------3-----3-----|--------------5-----|------------10-----7--|
-----5--------5-----|--------3-----3-----|------0---------0-----|
--3-----------------|-----3--------------|---------8------8-----|
--------------------|--3-----------------|---8------------------|
E E E E E E
E E E E E E
E E E E E E
--0-----------------|--------------------|--------2-----2-----|
-----------0-----3--|--3--------2--------|--------3-----3-----|
-----------0--------|--------2-----------|-----2--------2-----|
--------0-----0-----|-----2-----------0--|--2--------0-----2--|
-----2--------------|--0-----------4-----|--------------------|
--2-----------------|--------------------|--0-----------------|
E E E E E E
E E E E E E
E E E E E E
--------2-----2-----|--------0-----0-----|--------3-----3-----|
--------1-----1-----|--------0-----0-----|--------3-----3-----|
-----2--------2-----|-----0--------0-----|-----3--------3-----|
--2--------0-----2--|--4--------2-----4--|--5--------4-----5--|
--------------------|--------------------|--------------------|
--0-----------------|--0-----------------|--0-----------------|
Q
E E E E
E E E E E E
Q
E E E E
-------0-----0-----|-----4--------4-----|-------2-----2-----|
-------7-----7-----|-----5--------5-----|-------3-----3-----|
-------6-----6-----|--6-----4--7-----4--|--2----------------|
--7-------4-----0--|--4-----------------|----------4-----0--|
-------------------|--------------------|-------------------|
--0----------------|--------------------|--0----------------|
^
E E E E E E
S S S S E E E E
S S S S E E E E
--------2--3--7--10--|--9h-10-9-10-12------------|--4h-5-4-5-7-----0-----|
-----0--------0------|--------------------10-----|-----------------------|
--------0-----0------|---------------------------|--------------------6--|
--2------------------|--------------0---------7--|-----------4--6--7-----|
--0-----------0------|--------0--------7---9-----|-------4---------------|
---------------------|--0------------------------|--4--------------------|
^

E E E E E E
S S S S E E E E
S S S S E E E E
--3--2--3--5--7--10--|--9---------------------|--9h-10-9-10-12------------|
--------------0------|----10-7-8-10-----------|--------------------10-----|
--4--2--0-----0------|---------------0-----7--|---------------------------|
-----------4---------|------------------9-----|--------------0---------7--|
--------------0------|-------0----7-----------|--------0--------7---9-----|
--2------------------|--0---------------------|--0------------------------|
S S S S E E E E
E E E E E E
E E E E E E
--4h-5-4-5-7-----0-----|--5--3--3--2--2-----|--0-----------2-----|
-----------------------|--0--------0-----3--|-----------3-----3--|
--------------------6--|-----2--3-----0-----|-----2--3-----0-----|
-----------4--6--7-----|--------------------|-----------4-----4--|
-------4---------------|--------------------|--0-----------------|
--4--------------------|--2-----------------|--------------------|
E E E E E E
E E E E E E
E E E E E E
-----0--0-----------||---0-----------------|--------2--5--10--8--|
--3-----------2--3--||------3--3-----------|-----3---------------|
-----0--------0-----||*--0--------6--6--5--|--6------------------|
--4-----2--4--------||*--------4-----0--2--|--4-----0------------|
--0-----------------||---------0-----------|---------------------|
--------------------||---0-----------------|---------------0-----|
^
S S S S E E E E
S S S S E E E E
--7-5---5-7---------0--|------------------10--8--7--|
------8---------8--10--|--11-10--8-10-11------------|
-----------------------|---7---------------0-----0--|
----------5--7--9------|--------10-----8------------|
------5----------------|----------------------7-----|
--5--------------------|--10------------------------|
^
|-3-| |3|
|--3--|
E S S E E E E E
E E E E E E
E E E E E E E
-----------------------------|-----------------------|--5--------------------|
--11--10----8--10-----6--8s--|--10----------------8--|--------------8-----6--|
---0---------------0---------|----------------10-----|--------7-----0--------|
---------10-----7-----7------|---------10--8---------|-----5-----7-----7-----|
---8-------------------------|------8----------8-----|--6--------------------|
-----------------------------|---8-------------------|-----------------------|
E E E E E E
E E E E E E
E E E E Q
--------0------------||--5-----------------|--0-----2-----5----|
--6------------------||-----------0--2--3--|-----------0-------|
--------------6--7--*||-----0--2-----------|--------2----------|
--8--7-----8--5-----*||--4-----------4-----|-----4--------4----|
--0------------------||--------------------|--2----------------|
---------------------||--0-----------------|-------------------|
^
NH NH NH NH
NH
NH
E E E E Q
E
E
E
E
E
E
--7-----10-----12----|--<>7-----------------<>12--------|

---------------------|------------<>7-------------<>12--|
---------7--9--12----|-----------------<>7--<>12--------|
-----7----------9----|-------<>7------------------<>12--|
--7-------------0----|----0-----------------------------|
---------------------|----------------------------------|
|---3--|
E E S S S E E E
E E E E E E
E E E E E E
--9--10--9h-10p-9------------|--4-----------------|--3-----2-----------|
----------------------10-----|--------5-----------|-----------------3--|
---------9-------------------|--------4-----------|--------2-----0-----|
------------------12--11-----|-----------7--6-----|-----------4--------|
--------------------------0--|-----4-----------4--|-----2--------0-----|
--0--------------------------|--4-----------------|--2-----------------|
|---3--|
E E E E Q
E E S S S E E E
E E E E E E
--0-----4----------|--9--10--9h-10p-9------------|--4-----------------|
--------0----------|----------------------10-----|--------5-----------|
--------6----------|---------9-------------------|--------4-----------|
-----4-----4-------|------------------12--11-----|-----------7--6-----|
-----0--------0----|--------------------------0--|-----4-----------4--|
--0----------------|--0--------------------------|--4-----------------|
^
|-3-| |-3-|
E E E E E E
E E Q
S S S S S S
H.
--3-----2-----------|--0-----4----4-----------|--L-----------||
-----------------3--|--------6------6---------|--L-----------||
--------2-----0-----|--------6--------6-------|--L-----------||
-----------4--------|-----4--4----------4-----|--L-----------||
-----2--------0-----|-----0--0------------0---|--L-----------||
--2-----------------|--0--------------------0-|--L-----------||
Duration Legend
--------------W
- whole
H
- half
Q
- quarter
E
- 8th
S
- 16th
.
- note dotted
|-3-| - 3 notes played in the time of 2 notes
Tablature Legend
---------------h - hammer on
p - pull off
NH - natural harmonic
^ - brush up
L - tied note