Sei sulla pagina 1di 2

YOUR LOVE

By: Alamid

TABBED BY: RODERICK P. MAGPANTAY

Intro: Em hold
Am7-G/B-C-Am7-G/B-Em-D-
C--
G D C
You're the one who never let me sleep
G D
Through my mind and through my soul,
C
You touch my lips
G D C
You're the one that I can't wait to see
G D C
When you're here by my side, I'm in ecstacy

Refrain

Em D C
I'm all alone without you
Em D C
But days are dark without the glimpse of you
Am7 G/B
Now that you come into my life
C
I feel complete
Am7 G/B C
The flowers bloom, the morning shines and I can see

Chorus
G D Em
Your love is like the sun
C G
That lights up my whole world
D Em-C
I feel the warmth inside
G D Em
Your love is like a river
C G
That flows down through my veins
D Em-C
I feel the chill inside

Filler: Em-D-C-; (2x)

G D/F# C
Everytime I hear music played
G D/F# C
Reminds me of the things that we've been through
G D/F# C
In my mind I can't believe it's true
G D/F# C
But in my heart, the reality is you

Repeat Refrain

Repeat Chorus 2x

Interlude: FM7-Em-Am-FM7-D-C hold; (2x)


/Gb./G./D, /C./B.,
/C, /D, /E, /Gb, /G, /A

Ad lib: (Do chorus chords)

Repeat chorus to fade

G/B x20003
D/F# 2x0232
Solo

e|------------------------12/15-15---------------------------------------------------|
B|---------------------------------15~-13-12-13--------13/15-15-13-15-12-15-13-15----|
G|----------------------------------------------12~-12---------------------------12~-|
D|-4-5-------------------------------------------------------------------------------|
A|----5~-3-2-3-5-7-9-10-12-----------------------------------------------------------|
E|-----------------------------------------------------------------------------------|

e|--------------------------------------------12/15~-|
B|---------------------------15p13p12-12-13-15-------|
G|-12-11h12p11p9-------------------------------------|
D|---------------12 12/14 12-------------------------|
A|---------------------------------------------------|
E|---------------------------------------------------|

|------22--------------------------------22-22-22----|
|-22b24--24rb22-20-22~-22-20----20-22b24----------20~|
|----------------------------21----------------------|
|----------------------------------------------------|
|----------------------------------------------------|
|----------------------------------------------------|

e|---15-----------------------------------------------------------------------------------|
B|-15---13-15-13h15p13p12--------------------------15-12p10-------------------------------|
G|------------------------14~-12-14-12----12-14b16----------14p12p11---12-14-14br------12~|
D|-------------------------------------14----------------------------14-----------12h14---|
A|----------------------------------------------------------------------------------------|
E|----------------------------------------------------------------------------------------|