Sei sulla pagina 1di 4

Embraceable You (ver 1) by George Gershwin tabs @ Ultimate Guitar ...

http://tabs.ultimate-guitar.com/print/?id=667826&transpose=6

Embraceable You Chords by George Gershwin


+
|
|
|
|
|
+

--------------------------------------------------------------------- +
Ultimate Guitar Tabs Archive - your #1 source for tabs!
|
http://www.ultimate-guitar.com/
|
|
Over 300,000 guitar, guitar pro and bass tabs! Also lessons, news,
|
columns and guitar forums!
|
--------------------------------------------------------------------- +

Artist: George Gershwin


Song: Embraceable You
Embraceable You- George & Ira Gershwin
Tabbed by Robin Young
VERSE 1
C#
Dozens of girls would storm up
G#7
I had to lock my door
Cm
G#7
Somehow I couldnt warm up
A9 G#7 C#
D#m7 G#7
To one be-fore
VERSE 2
C#
What was it that controlled me?
C7
F
What kept my love-life lean?
C7
F
My intuition told me
D#m7
C#
Youd come on the scene
PRE-CHORUS
A#m
D#9
A#m
D#9
A#m
A#m6
A#m
Lady, listen to the rhythm of my heartbeat
D#7
D#m G#
D#m
G# D#m
G# D#m G#
And youll get just what I mean
CHORUS 1
C#
Gdim
G#7
Am11
Bm6 G#7
Embrace me,
my sweet em-brace-a-ble you
D#m
B7
G#7
C#
G#7sus4
C#
Embrace me,
you ir-re-place-a-ble
you
A#m
A#m7
A#m6
C7
Fm
E+
Fm7 A#7
Just one look at you, my heart grew tipsy in me
G#
Adim
D#7
G#7
You and you
a-lone bring out the gypsy in me
CHORUS 2
C#
Gdim
G#7
F#
Bm6 G#7
I love all
the many charms a-bout you
D#m
B7
G#7
C#7
G#7sus4
Em6 C#7
Above all,
I want my arms a-bout
you
F#
D#m6
F7
Dont be a naughty baby
A#m
A+
C#
A#m6
Come to papa, come to papa, do
C#
F#m6
G#
C#
My sweet A#m-brace-D#-ble you
A D# G#7
(repeat chorus 1&2- end on G)

END
+--------------------------------------------------------------------------+
| This file is the author's own work and represents their interpretation
|
| of the song. You may only use this file for private study, scholarship, |

1 of 4

14.4.2013 12:00

Embraceable You (ver 1) by George Gershwin tabs @ Ultimate Guitar ...

http://tabs.ultimate-guitar.com/print/?id=667826&transpose=6

| or research.
|
+--------------------------------------------------------------------------+
Ultimate-Guitar.Com 2013
Show/hide chords diagrams

Add more chord diagrams to the list:

D#
E
B
G
D
A
E

|---|---|-3-|---|---|
|---|---|---|-4-|---|
|---|---|-2-|---|---|
|-1-|---|---|---|---|
|---|---|---|---|---|
|---|---|---|---|---|

F#m6
o
o
o
o
x
x

E
B
G
D
A
E

|---|-X-|---|---|---|
|---|-X-|---|---|---|
|---|-X-|---|---|---|
|-1-|---|---|---|---|
|---|---|---|---|---|
|---|-3-|---|---|---|

A
o
o
o
o
o
o

E
B
G
D
A
E

|---|---|---|---|---|
|---|-3-|---|---|---|
|---|-2-|---|---|---|
|---|-1-|---|---|---|
|---|---|---|---|---|
|---|---|---|---|---|

o
o
o
o
o
x

1 fr.

F7
E
B
G
D
A
E

|-X-|---|---|---|---|
|-X-|---|---|---|---|
|-X-|-3-|---|---|---|
|-X-|---|---|---|---|
|---|---|---|---|---|
|-2-|---|---|---|---|

D#m6
o
o
o
o
o
o

E
B
G
D
A
E

|-X-|-2-|---|---|---|
|-X-|---|---|---|---|
|-X-|---|-3-|---|---|
|-X-|---|---|---|---|
|---|---|---|---|---|
|---|---|---|---|---|

Em6
o
o
o
o
x
x

E
B
G
D
A
E

|---|---|---|---|---|
|---|---|---|---|---|
|---|---|---|---|---|
|---|-1-|---|---|---|
|---|---|---|-3-|---|
|---|---|---|---|---|

o
o
o
o
o
o

1 fr.

C#7
E
B
G
D
A
E

|-2-|---|---|---|---|
|---|---|---|---|---|
|-1-|---|---|---|---|
|---|---|-3-|---|---|
|---|---|---|-4-|---|
|---|---|---|---|---|

F#
o
o
o
o
o
x

E
B
G
D
A
E

|-X-|---|---|---|---|
|-X-|---|---|---|---|
|-X-|-2-|---|---|---|
|-X-|---|-4-|---|---|
|-X-|---|-3-|---|---|
|-X-|---|---|---|---|

Adim
o
o
o
o
o
o

E
B
G
D
A
E

|-X-|---|---|---|---|
|-X-|---|---|---|---|
|-X-|-2-|---|---|---|
|-X-|---|---|---|---|
|---|---|---|---|---|
|---|---|---|---|---|

x
o
o
o
o
x

2 fr.

A#7
E
B
G
D
A
E

|-X-|---|---|---|---|
|-X-|---|-4-|---|---|
|-X-|---|---|---|---|
|---|---|---|---|---|
|-2-|---|---|---|---|
|---|---|---|---|---|

Fm7
o
o
o
o
o
x

E
B
G
D
A
E

|-X-|---|---|---|---|
|-X-|---|---|---|---|
|-X-|---|---|---|---|
|-X-|---|---|---|---|
|-X-|---|-3-|---|---|
|-X-|---|---|---|---|

E
o
o
o
o
o
o

E
B
G
D
A
E

|---|---|---|---|---|
|---|---|---|---|---|
|-1-|---|---|---|---|
|---|-3-|---|---|---|
|---|-2-|---|---|---|
|---|---|---|---|---|

o
o
o
o
o
o

1 fr.

Fm

2 of 4

A#m7

G#7sus4

14.4.2013 12:00

Embraceable You (ver 1) by George Gershwin tabs @ Ultimate Guitar ...

E
B
G
D
A
E

|-X-|---|---|---|---|
|-X-|---|---|---|---|
|-X-|---|---|---|---|
|-X-|---|-4-|---|---|
|-X-|---|-3-|---|---|
|-X-|---|---|---|---|

o
o
o
o
o
o

E
B
G
D
A
E

1 fr.

|-X-|---|---|---|---|
|-X-|-2-|---|---|---|
|-X-|---|---|---|---|
|-X-|---|-3-|---|---|
|-X-|---|---|---|---|
|---|---|---|---|---|

o
o
o
o
o
x

E
B
G
D
A
E

1 fr.

B7
E
B
G
D
A
E

http://tabs.ultimate-guitar.com/print/?id=667826&transpose=6

|---|-4-|---|---|---|
|---|---|---|---|---|
|---|-3-|---|---|---|
|-1-|---|---|---|---|
|---|-2-|---|---|---|
|---|---|---|---|---|

|-X-|-X-|---|---|---|
|-X-|-X-|---|---|---|
|-X-|---|---|---|---|
|-X-|---|---|---|---|
|---|---|---|-4-|---|
|---|---|---|-3-|---|
1 fr.

Bm6
o
o
o
o
o
x

E
B
G
D
A
E

o
o
o
o
o
o

|---|-3-|---|---|---|
|---|---|---|---|---|
|-1-|---|---|---|---|
|---|---|---|---|---|
|---|-2-|---|---|---|
|---|---|---|---|---|

Gdim
o
o
o
o
o
x

E
B
G
D
A
E

|---|-3-|---|---|---|
|-1-|---|---|---|---|
|---|-2-|---|---|---|
|---|---|---|-4-|---|
|---|---|---|---|---|
|---|---|---|---|---|

o
o
o
o
x
x

2 fr.

G#
E
B
G
D
A
E

|-X-|---|---|-4-|---|
|-X-|---|---|---|---|
|-X-|---|---|---|---|
|-X-|---|---|---|---|
|---|---|-2-|---|---|
|---|---|---|-3-|---|

D#m
o
o
o
o
o
o

E
B
G
D
A
E

1 fr.

|---|-2-|---|---|---|
|---|---|---|-4-|---|
|---|---|-3-|---|---|
|-1-|---|---|---|---|
|---|---|---|---|---|
|---|---|---|---|---|

o
o
o
o
x
x

E
B
G
D
A
E

1 fr.

A#m6
E
B
G
D
A
E

D#7

|-2-|---|---|---|---|
|---|-3-|---|---|---|
|---|---|---|---|---|
|---|---|-4-|---|---|
|-1-|---|---|---|---|
|---|---|---|---|---|

|---|---|-4-|---|---|
|---|-2-|---|---|---|
|---|---|-3-|---|---|
|-1-|---|---|---|---|
|---|---|---|---|---|
|---|---|---|---|---|
1 fr.

D#9
o
o
o
o
o
x

E
B
G
D
A
E

o
o
o
o
x
x

|-2-|---|---|---|---|
|---|-3-|---|---|---|
|---|---|---|---|---|
|-1-|---|---|---|---|
|---|---|---|---|---|
|---|---|---|---|---|

A#m
o
o
o
o
x
x

E
B
G
D
A
E

|-X-|---|---|---|---|
|-X-|-2-|---|---|---|
|-X-|---|-4-|---|---|
|-X-|---|-3-|---|---|
|-X-|---|---|---|---|
|---|---|---|---|---|

o
o
o
o
o
x

1 fr.

F
E
B
G
D
A
E

|-X-|---|---|---|---|
|-X-|---|---|---|---|
|-X-|-2-|---|---|---|
|-X-|---|-4-|---|---|
|-X-|---|-3-|---|---|
|-X-|---|---|---|---|

C7
o
o
o
o
o
o

E
B
G
D
A
E

1 fr.

3 of 4

o
o
o
o
o
x

E
B
G
D
A
E

3 fr.

A9
E
B
G
D

|-X-|---|---|---|---|
|-X-|---|-4-|---|---|
|-X-|---|---|---|---|
|-X-|---|-3-|---|---|
|-X-|---|---|---|---|
|---|---|---|---|---|

D#m7

|---|-X-|-2-|---|---|
|---|-X-|---|---|---|
|---|-X-|---|-3-|---|
|---|-X-|---|---|---|

E
B
G
D

o
o
o
o
x
x

1 fr.

Cm
o
o
o
o

|---|-3-|---|---|---|
|---|-2-|---|---|---|
|---|---|-4-|---|---|
|-1-|---|---|---|---|
|---|---|---|---|---|
|---|---|---|---|---|

|---|---|-4-|---|---|
|-2-|---|---|---|---|
|---|---|---|---|---|
|-1-|---|---|---|---|

G#7
o
o
o
o

E
B
G
D

|-X-|-2-|---|---|---|
|-X-|---|---|---|---|
|-X-|---|---|---|---|
|-X-|---|---|---|---|

o
o
o
o

14.4.2013 12:00

Embraceable You (ver 1) by George Gershwin tabs @ Ultimate Guitar ...

A |---|---|---|---|---| o
E |---|---|---|---|---| x

A |---|---|-3-|---|---| o
E |---|---|---|---|---| x

http://tabs.ultimate-guitar.com/print/?id=667826&transpose=6

A |---|---|-3-|---|---| o
E |---|---|---|-4-|---| o
1 fr.

C#
E
B
G
D
A
E

|-X-|---|---|---|---|
|-X-|-2-|---|---|---|
|-X-|---|---|---|---|
|---|---|-3-|---|---|
|---|---|---|-4-|---|
|---|---|---|---|---|

o
o
o
o
o
x

1 fr.

4 of 4

14.4.2013 12:00